Song name
# A B C D E F G H I J K L M N O P Q R S T U V W X Y Z

Dee Dee Ramone - Why Is Everybody Always Against Germany tab

pretty simple song, yet fun to play!

intro/verse
E----------------------------------------------------------------|
B----------------------------------------------------------------|
G----------------------------------------------------------------|
D-9--9-7~--7-9~--9-7~--7-9~--9-7-7-7-7-6-6-6-6-4-4-4-4-8-9-9-9-9-|
A-9--9-7~--7-7~--9-7~--7-9~--9-7-7-7-7-6-6-6-6-4-4-4-4-8-9-9-9-9-|
E-7--7-5~--5-7~--7-5~--5-7~--7-5-5-5-5-4-4-4-4-2-2-2-2-6/7-7-7-7-|

E------------------------------------------------|
B------------------------------------------------|
G------------------------------------------------|
D-8-9-9-9-9-8-9-9-9-9-8-9-9-9-9------------------|
A-8-9-9-9-9-8-9-9-9-9-8-9-9-9-9------------------|
E-6/7-7-7-7-6/7-7-7-7-6/7-7-7-7------------------|

chorus thing
E---------------------------------|
B---------------------------------|
G-7-7-x---------------------------|
D-7-7-x-5--5-7-7-7-7-7-7-9-9------|
A-5-5-x-5--5-7-7-7-7-7-7-9-9------|
E-------3--3-5-5-5-5-5-5-7-7------|

Outro thing
E----------------------------|
B----------------------------|
G-9--9-9--9-9-9--------------|
D-9--9-9--9-9-9-7--7-9--9-9--|
A-7--7-7--7-7-7-7--7-9--9-9--|
E---------------5--5-7--7-7--|
the six E chords are counted as 1 & & & 4 &

this is a bit harder because of the off beat rythems
Tap to rate this tab
# A B C D E F G H I J K L M N O P Q R S T U V W X Y Z