Song name
# A B C D E F G H I J K L M N O P Q R S T U V W X Y Z

Dee-lite - Groove Is In The Heart tab

Highlighted       Show chord diagrams
...GROOVE IS IN THE HEART... by Dee-Lite
----------------------------............

*from 'World Clique' (1990)*


Intro:

(Bass):

    G#7
G|-----------------------|
D|-----4-----6--4--------|
A|--------6--------6--4--|
E|--4--------------------|

    C#7
G|--4----6--4------------|
D|----6--------6--4-5-6--|
A|-----------------------|
E|-----------------------|

(Repeat All of Above x4)

Verse 1:

    G#7
The chills that you,
            C#7
Spill up my back,
                    G#7
Keep me filled with satisfaction,
When we're done,
     C#7
Satisfaction of what's to come.

    G#7                  C#7
(I) I couldn't ask for a-nother.
(I-I-I-I-I I),
   G#7                  C#7
No I couldn't ask for a-nother.

Verse 2:

     G#7
Your groove I do deeply dig,
   C#7
No walls only the bridge.
G#7
 My supperdish,
             C#7
My succotash wish.
(Sing it baby).

    G#7                  C#7
(I) I couldn't ask for a-nother.
(I-I-I-I-I I),
   G#7                  C#7
No I couldn't ask for a-nother.

Interlude:

Ab7  C#7 (x4)

Chorus 1:

G#7
 Groove is in the heart,
C#7
 Ah-ah-ah-ah,
G#7
 Groove is in the heart,
C#7
 Ah-ah-ah-ah.

G#7                      C#7
 Groove is in the heart.
G#7
 Groove is in the heart,
C#7
 Ah-ah-ah-ah.

Interlude:

(Bass):

    G#7
G|-----------------------|
D|-----4-----6--4--------|
A|--------6--------6--4--|
E|--4--------------------|

    C#7
G|--4----6--4------------|
D|----6--------6--4-5-6--|
A|-----------------------|
E|-----------------------|

(Repeat All of Above x2)

Verse 3:

    G#7
The depth, the hula groove;
C#7
 Move us to the nth hoop.
G#7
 We goin' through to Horten,
        C#7
Hears a who-ooh.

    G#7                  C#7
(I) I couldn't ask for a-nother.
(I-I-I-I-I I),
   G#7                  C#7
No I couldn't ask for a-nother.

Verse 4:

   G#7
DJ Soul (soul) was on a roll,
C#7
 I've been told he can't be sold.
G#7
 He's not vicious or malicious,
C#7
 Just de-lovely and delicious.

    G#7                  C#7
(I) I couldn't ask for a-nother.
(Sing it).

Chorus 2:

G#7
 Groove is in the heart,
C#7
 Ah-ah-ah-ah,
G#7
 Groove is in the heart,
C#7
 Ah-ah-ah-ah.

G#7                      C#7
 Groove is in the heart.
G#7
 Groove is in the heart,
C#7
 Ah-ah-ah-ah.

Interlude:

G#7  C#7 (x2)

(Spoken):

G#7 (n.c)
 (1, 2, 3, 4).

Break:

G#7  C#7 (x4)

Chorus 3:

G#7
 Groove is in the heart,
C#7
 Ah-ah-ah-ah,
G#7
 Groove is in the heart,
C#7
 Ah-ah-ah-ah.

G#7                      C#7
 Groove is in the heart.
G#7
 Groove is in the heart,
C#7
 Ah-ah-ah-ah.

Outro:

(Bass):

    G#7
G|-----------------------|
D|-----4-----6--4--------|
A|--------6--------6--4--|
E|--4--------------------|

    C#7
G|--4----6--4------------|
D|----6--------6--4-5-6--|
A|-----------------------|
E|-----------------------|

(Repeat All of Above x2)


CHORD DIAGRAMS:
---------------

   G#7     C#7

 EADGBE  EADGBE
 464544  x46464


Tabbed by Joel from cLuMsY, Bristol, England, 2007
(clumsyband@hotmail.com)
Tap to rate this tab
 
# A B C D E F G H I J K L M N O P Q R S T U V W X Y Z