Song name
# A B C D E F G H I J K L M N O P Q R S T U V W X Y Z

Deefons - Steak And Potatoes tab

Song:Steak & Potatoes
Band:The Deefons
Album:Clippings From The Edge Of The Road

e|---------------------|
B|---------------------|
G|--------6--7-9-11-12-|
D|-7-8--9-6--7-9-11-12-|
A|-7-8--9-4--5-7--9-10-|
E|-5-6--7--------------|
   A A# B C# D E F# G

Intro:B G F# D E B G F# A A#

e|-----------------------------------------|
B|-----------------------------------------|
G|-----------------------------------------|
D|-9-------------------7-------------------|
A|-9--10-9-7--0h5h7p5--7--9-7-5--0h4h5p4---|
E|-7-------------------5-------------------|

  B A B A B  D C# A

Verse:B G F# E


B G F# A  A-A#-B

That's it...figure out all the timing and where everything goes
yer self.
Tap to rate this tab
# A B C D E F G H I J K L M N O P Q R S T U V W X Y Z