Song name
# A B C D E F G H I J K L M N O P Q R S T U V W X Y Z

Deep Banana Blackout - Take The Time tab

Help us improve GuitareTab! Take a short survey!
e----------------------------------------------------------------|
b----------------------------------------------------------------|
g----------------------------------------------------------------|
d-------------3-------------------------------3------------------|
a-345-345-345--5--345-345-345---345-345-345--5--345-345-345------|
e------------------------------4-------------------------------4-|

e--------------------------------------------------------------|
b-------------6------------------------6-8br-6-4----3----------|
g-567-567-567--7--567-567-567--5-6-7-----------2---------------|
d------------------------------6------------------1------6-7---|
a------------------------------------------------------4-----6-|
e--------------------------------------------------------------|

e----------------------------------------|
b----------------------------------------|
g----------------------------------------|
d----------------------------------------|      x4
a-----------------------3-5-5br-3--------|
e-555--5-555--5-555--5-------------------|

e---------------------------------------|
b---------------------------------------|
g---------------------------------------|
d------7-----7------7-------------------|     x3
a------------------------3-5-5br-3------|
e-555----555---555----5-----------------|

e-------------------------------------------|
b-------------------------------------------|
g-------------------------------------------|
d-777-666-555-------------------------------|
a--------------777-66-55--------------------|
e-------------------------777-666-55-3-5-3--|

e-----------------------------------------------|
b-----------------------------------------------|
g-----------------------------------------------|
d-----------------------------------------------|      x3
a-----------------------------------------------|
e-00000000-66666666-22222222-88888888-----------|

e---------------------------------------------------------------------------------|
b--------------------------------------------6-8-8b-8b-6-8-8s10-6---------6b-6b---|
g----------------------------------------5-7----------------------7-5--5-7--------|
d---------------------555-333-----3h5-7------------------------------7------------|
a---------555-777-333--------44-5-------------------------------------------------|
e-000-666-------------------------------------------------------------------------|

e----------------------------------------------------------------------------------|
b----------------------------------------------------------------------------------|
g-5-------------5--5---------------------------------------------------------------|
d--7-3-3--3-5-7--7--7-5-3---3-------3-5-5s777-5s777-5s777-5-3-5-3------3--3h5-3----|
a--------5-----------------5---5---5--------------------------------5555--5--------|
e----------------------------------------------------------------------------------|

e------------------------------------------------|
b------------------------------------------------|
g------------------------------------------------|
d--3-5-5s777-5s777-5s777-5-3-5-5-3-5-3-----3-----|
a-5--------------------------------------5-5--5--|
e------------------------------------------------|

e-xxxxxxxxxxxxxxxxxxxxxxxxxxxxxxxxxxxxxxxxxxxx
b-xxxxxxxxxxxxxxxxxxxxxxxxxxxxxxxxxxxxxxxxxxxx
g-xxxxxxxxxxxxxxxxxxxxxxxxxxxxxxxxxxxxxxxxxxxx
d-xxxxxxxxxxxxxxxxxxxxxxxxxxxxxxxxxxxxxxxxxxxx
a-xxxxxxxxxxxxxxxxxxxxxxxxxxxxxxxxxxxxxxxxxxxx
e-xxxxxxxxxxxxxxxxxxxxxxxxxxxxxxxxxxxxxxxxxxxx

e-----------------------------------------------|
b-----------------------------------------------|
g-----------------------------------------------|
d-----------------------------------------------|    x3
a-333333333333-5s6s5-3333333333-5s6-5s6s5-------|
e-----------------------------------------------|

e------------------------------------|
b-------------------------666-8-11~--|
g-----------------333-666------------|
d---------333-666--------------------|
a-333-555----------------------------|
e------------------------------------|

e--------------------------------------|
b--------------6-----------------------|
g-567-567-567---7--567-567-567---------|
d-------------------------------6------|     x3
a--------------------------------------|
e--------------------------------------|

e------------------------------|
b-------------6-8p6-8b-865-----|
g-567-567-567-------------765--|
d------------------------------|
a------------------------------|
e------------------------------|

verse riff
e---------------------------------|
b-6-6---6-6-------6-6---6-6-------|
g-5-5---5-5--4-5--5-5---5-5-------|
d------------4-5-------------6-5--|
a------------2-3-------------6-5--|
e---------------------------------|


www.deepbananablackout.com
Related for Take The Time tab