Song name
# A B C D E F G H I J K L M N O P Q R S T U V W X Y Z

Deep Dish - We Gonna Feel It tab

We gonna feel it by deepdish (the solo part)

e--------------------------------------------------------------|
B--5-8-10-10-10-8-8-10-10-10-12-13-13-12-10-8-5----------------|
G--------------------------------------------------------------|
D--------------------------------------------------------------|
A--------------------------------------------------------------|
E--------------------------------------------------------------|


e--------------------------------------------------------------|
B---5-8-10-10-10-8-8-10-10-12-13-12-10-8-10-5------------------|
G--------------------------------------------------------------|
D--------------------------------------------------------------|
A--------------------------------------------------------------|
E--------------------------------------------------------------|

e-------------------------------------------------------------------------|
B---10-12-13-12-12-12-13-15-13-12-13-12-10-10-8-5-3-5-3---3---------------|
G-------------------------------------------------------5---5-5-4-0-4-0---|
D-------------------------------------------------------------------------|
A-------------------------------------------------------------------------|
E-------------------------------------------------------------------------|
Tap to rate this tab
# A B C D E F G H I J K L M N O P Q R S T U V W X Y Z