Song name
# A B C D E F G H I J K L M N O P Q R S T U V W X Y Z

Deep Purple - Strange Kind Of Woman Live tab

-------------------------------------------------------------------------------
Deep Purple-Strange Kind of Woman
(Blackmore/Gillan/Glover/Lord/Paice)
Live in New York 1973
-------------------------------------------------------------------------------
                                                        .25 .25
e|----------------------------------------------------------------------|
B|----------------------------------10b12-7-----------------------------|
G|---------------7-------7/9----------------9p7----------7b-7b----------|
D|-9-9p7---9p7---7-9p7---7/9--9p7---------------9--9p7---------9--------|
A|-------9-----9-------9----------9--------------------9----------------|
E|----------------------------------------------------------------------|

                   P.M--------------------------------------------------------|
e|----------------------------------------------------------------------------|
B|---------------------------------------------10b12-10b12-7------------------|
G|-7-9-7------------7-7-7-7-7-7--9p7h9-7---------------------9b11-9p7---7-----|
D|-7-9-7--9p7---7-x-7-7-7-7-7-7--9p7h9-7-9-7-9------------------------9---9---|
A|------------9---------------------------------------------------------------|
E|----------------------------------------------------------------------------|

                     hold bend----------

e|----------7-10~-10-10b12-12-12-12-12r10--7-7-------------------------------|
B|-----7-10------------------------------------7-10-7------------------------|
G|---9------------------------------------------------9-7-7-7----------------|
D|------------------------------------------------------------9-7-9-9--------|
A|---------------------------------------------------------------------------|
E|---------------------------------------------------------------------------|

e|-------------------------------------------------------------------------------------|
B|-------------------------------------------------------------------------------------|
G|------7--------7-7---7-7-----------7-------------7---7-----7---7---7---7---7---7-----|
D|--7-9---9-7-7------9-----9---x-x-x---x-x-x-x-x-x-7-x-7-x-x-7-x-7-x-7-x-7-x-7-x-7-----|
A|-------------------------------------------------------------------------------------|
E|-------------------------------------------------------------------------------------|
Tap to rate this tab
 
# A B C D E F G H I J K L M N O P Q R S T U V W X Y Z