Song name
# A B C D E F G H I J K L M N O P Q R S T U V W X Y Z

Deep Purple - Vavoom tab

e|----------------------------------|
b|----------------------------------|
g|-12-12~--------------------14-14~-|
d|------------------12-13-14--------|
a|---------12-13-14-----------------|
e|----------------------------------|

e|-------------------|
b|-------------------|
g|-------14-----14\--|
d|-------14-----14\--|
a|-16p14-----16------|
e|-------------------|

e|--------------------------------------------|
b|-13b--13-12---------------------------------|
g|-------------15-14--11-12--12-13------------|
d|----------------------------------14-11-----|
a|-----------------------------------------14-|
e|--------------------------------------------|

e|-----------------------------------------------|
b|-----------------------------------------------|
g|-----------------------------------------------|
d|-14-11-------------------------------14~-------|
a|--------14-12--13-----12-----------------------|
e|------------------15-----14-15/16-12-----------|

e|-----------------------------------------------|
b|-----------------------------------------------|
g|-------------------12--------------------------|
d|----------12-13-14-----14-13-12----------14-14-|
a|-12-13-14-----------------------14-13-12-------|
e|-----------------------------------------------|

e|---------------------------|
b|---------------------------|
g|--------12-13-14-15-16--12-|
d|-11------------------------|
a|----14---------------------|
e|---------------------------|

e|------12-------------------------------|
b|-15b--------------------------------15-|
g|---------16-15-14-13-12-13-14-15-16----|
d|---------------------------------------|
a|---------------------------------------|
e|---------------------------------------|

 
e|--------------------------------------|
b|--------------------------------------|
g|-16-15-14-13--------------12h13-------|
d|-------------14-13-12-----------14----|
a|----------------------14-----------14-|
e|--------------------------------------|

e|-17br-15br--12-----12--12-----------------------|
b|---------------15b--------15-14-12--------------|
g|-----------------------------------15-14-12h13--|
d|------------------------------------------------|
a|------------------------------------------------|
e|------------------------------------------------|

e|----------------------------------------|
b|----------------------------------------|
g|----------------------------------------|
d|-14----12-11----------------------------|
a|----14-------14-12----------------------|
e|-------------------15-14-15---12-10-12--|

e|----------------------------------------------------|
b|----------------------------------------------------|
g|----------11b--11br----------12br-----------12------|
d|-11-12-14-----------14-11----------12-13-14----14\--|
a|--------------------------14------------------------|
e|----------------------------------------------------|

e|-5b-0-----4-5---3-4----------------------------|
b|------pb3-----5-----5-----5-4h5p0--------------|
g|----------------------6-4---------4-3-2-1h2----|
d|--------------------------------------------2--|
a|-----------------------------------------------|
e|-----------------------------------------------|
pb - pre bend

e|---------------------------------|
b|---------------------------------|
g|---------------------------------|
d|-------------5-------------------|
a|-------5-6-7----7-6-5-------7-7--|
e|-5-6-7----------------7-6-5------|

e|-----------------|
b|-----------------|
g|-----------------|
d|-----------------|
a|-5---7-5---------|
e|---7-----5-6-7-3-|

Long but fun song...Enjoy!
Tap to rate this tab
# A B C D E F G H I J K L M N O P Q R S T U V W X Y Z