Song name
# A B C D E F G H I J K L M N O P Q R S T U V W X Y Z

Deep Purple - No One Came tab

-------------------------------------------------------------------------------
Deep Purple-No one came
-------------------------------------------------------------------------------

Solo:   
e|---------------------------------------------------------------------------|
B|---------------------------------------------------------------------------|
G|--------------------------------------5b7r6---------------7b10r7-----------|
D|----5-7b9-7b9-7b9-7b9r7-7b7b-5-7-7b9-----------5-7br5-7-------------------|
A|--7-------------------------------------------7----------------------------|
E|---------------------------------------------------------------------------|

e|------5---------------10b12--------------------------5-7-5---5-------------|
B|----5---8b10-----10-8------------------5-5-8-5---5-8-------8---5-----------|
G|--7----------9-7-------------------4-7---------7---------------------------|
D|---------------------------------7-----------------------------------------|
A|---------------------------------------------------------------------------|
E|---------------------------------------------------------------------------|

e|--10b12-10-7-5-------------------------------------------------------------|
B|---------------8-5--5-5-88-5---5-5---5-5---55---5-5----5-5---5-5---5-5-----|
G|-----------------------------7-----7-----7----7-----7------7-----7---------|
D|---------------------------------------------------------------------------|
A|---------------------------------------------------------------------------|
E|---------------------------------------------------------------------------|

e|---------------------------------------------10-12-10----------------------|
B|----5-5---5-5------7-8-7-5---5-8-10b12-10b12----------10b12-8-10-----------|
G|--7-----7------9-----------8-------------------------------------9---------|
D|-----------------7---------------------------------------------------------|
A|---------------------------------------------------------------------------|
E|---------------------------------------------------------------------------|

e|------------------------------------------10b12-12-12r10-------------------|
B|--8-10-8------8-10-10b12-10b12r10--8-10-8-----------------12-12-12---------|
G|---------9-/9--------------------------------------------------------------|
D|---------------------------------------------------------------------------|
A|---------------------------------------------------------------------------|
E|---------------------------------------------------------------------------|

e|--10-------10----5-7-5---10b12-10-7----------------------------------------|
B|-----12-12----12-------8------------8--------------10-----8----------------|
G|-----------------------------------------7-7-7---7----7-9------------------|
D|---------------------------------------9-------9---------------------------|
A|---------------------------------------------------------------------------|
E|---------------------------------------------------------------------------|

e|---------------------10b12-10b12-7-5---------------------------------------|
B|----8-10b12r8-10---8-----------------8-5-8-8-8--8-5---8--7---5------------|
G|--7--------------9----------------------------------7---x--x---4-7--------|
D|--------------------------------------------------------------------7------|
A|---------------------------------------------------------------------------|
E|---------------------------------------------------------------------------|

e|---------------------------------------------------------------------------|
B|---------------------------------------------------------------------------|
G|----5---4------------------------------------------------------------------|
D|------5------7---7b9-------------------------------------------------------|
A|-----------7---5-----------------------------------------------------------|
E|---------------------------------------------------------------------------|


Tap to rate this tab
# A B C D E F G H I J K L M N O P Q R S T U V W X Y Z