Song name
# A B C D E F G H I J K L M N O P Q R S T U V W X Y Z

Deep Purple - Gettin Tighter tab

Band: Deep Purple
Song: Gettin' Tighter
Album: Come Taste The Band





guitar 1 (rhythm)



     E  E  S S E  Q    S S  E      Q    S S E  S S E  S S S  S  
E||----------------------------|-------------------------------|
B||----------------------------|-------------------------------|
G||------------7--5--------14--|--12--------7------5-----------|
D||--------x-x-7--5----x-x-14--|--12----x-x-7--x-x-5--x-x-5h-7-|
A||--------x-x---------x-x-----|--------x-x----x-x----x-x------|
E||--5--5----------------------|-------------------------------|


  E  E  S S E  Q    S S  E      Q    S S S S S S E  S S S  S  
----------------------------|--------------------------------|
----------------------------|--------------------------------|
------------7--5--------14--|--12----------------5-----------|
--------x-x-7--5----x-x-14--|--12----x-x-x-x-x-x-5--x-x-5h-7-|
--------x-x---------x-x-----|--------x-x-x-x-x-x----x-x------|
--5--5----------------------|--------------------------------|


  E  E  S S E  Q    S S  E      Q    S S E  S  S  S S E  E   
----------------------------|-------------------------------|
----------------------------|-------------------------------|
------------7--5--------14--|--12--------7--5h-7p-5---5-----|
--------x-x-7--5----x-x-14--|--12----x-x-7----------5-5--7--|
--------x-x---------x-x-----|--------x-x-----------------7--|
--5--5----------------------|-------------------------------|


  E  E  S S E  Q    S S  E      H        E  E  E  E   
----------------------------|------------------------|
----------------------------|------------------------|
------------7--5--------14--|--12--------L-----------|
--------x-x-7--5----x-x-14--|--12--------L-----------|
--------x-x---------x-x-----|------------------------|
--5--5----------------------|---------------0--3--4--|


  E  E  S S E  Q    S S  E      Q    S S E  Q.     S  S  
----------------------------|---------------------------|
----------------------------|---------------------------|
------------7--5--------14--|--12--------7--5-----------|
--------x-x-7--5----x-x-14--|--12----x-x-7--5------5h-7-|
--------x-x---------x-x-----|--------x-x----------------|
--5--5----------------------|---------------------------|


  E  E  S S E  Q    S S  E      Q    S S E  Q.     S  S  
----------------------------|---------------------------|
----------------------------|---------------------------|
------------7--5--------14--|--12--------7--5-----------|
--------x-x-7--5----x-x-14--|--12----x-x-7--5------5h-7-|
--------x-x---------x-x-----|--------x-x----------------|
--5--5----------------------|---------------------------|


  E  E  S S E  Q    S S  E      Q    S S E  Q.     S  S  
----------------------------|---------------------------|
----------------------------|---------------------------|
------------7--5--------14--|--12--------7--5-----------|
--------x-x-7--5----x-x-14--|--12----x-x-7--5------5h-7-|
--------x-x---------x-x-----|--------x-x----------------|
--5--5----------------------|---------------------------|


  E  E  S S E  Q    S S  E      Q    S S E  Q.     S  S  
----------------------------|---------------------------|
----------------------------|---------------------------|
------------7--5--------14--|--12--------7--5-----------|
--------x-x-7--5----x-x-14--|--12----x-x-7--5------5h-7-|
--------x-x---------x-x-----|--------x-x----------------|
--5--5----------------------|---------------------------|


  E  E  S S E  Q    S S  E      Q    S S E  Q.     S  S  
----------------------------|---------------------------|
----------------------------|---------------------------|
------------7--5--------14--|--12--------7--5-----------|
--------x-x-7--5----x-x-14--|--12----x-x-7--5------5h-7-|
--------x-x---------x-x-----|--------x-x----------------|
--5--5----------------------|---------------------------|


  E  E  S S E  Q    S S  E      Q    S S E  Q.     S  S  
----------------------------|---------------------------|
----------------------------|---------------------------|
------------7--5--------14--|--12--------7--5-----------|
--------x-x-7--5----x-x-14--|--12----x-x-7--5------5h-7-|
--------x-x---------x-x-----|--------x-x----------------|
--5--5----------------------|---------------------------|


  E  E  S S E  Q    S S  E      Q    S S E  Q.     S  S  
----------------------------|---------------------------|
----------------------------|---------------------------|
------------7--5--------14--|--12--------7--5-----------|
--------x-x-7--5----x-x-14--|--12----x-x-7--5------5h-7-|
--------x-x---------x-x-----|--------x-x----------------|
--5--5----------------------|---------------------------|


  E  E  S S E  Q    S S  E      Q    S S E  Q.     S  S    W                 
----------------------------|---------------------------|-------------------|
----------------------------|---------------------------|-------------------|
------------7--5--------14--|--12--------7--5-----------|--5----------------|
--------x-x-7--5----x-x-14--|--12----x-x-7--5------5h-7-|--5----------------|
--------x-x---------x-x-----|--------x-x----------------|--3----------------|
--5--5----------------------|---------------------------|-------------------|


  S E.  S E.  S E.  S E.     E  E  S S E  Q    S S  E   
--------------------------|----------------------------|
--------------------------|----------------------------|
--------------------------|------------7--5--------14--|
----5-----5-----5-----5---|--------x-x-7--5----x-x-14--|
----5-----5-----5-----5---|--------x-x---------x-x-----|
----3-----3-----3-----3---|--5--5----------------------|


   Q    S S E  Q.     S  S    W                   S E.  S E.  S E.  S E.   
---------------------------|-------------------|--------------------------|
---------------------------|-------------------|--------------------------|
--12--------7--5-----------|--5----------------|--------------------------|
--12----x-x-7--5------5h-7-|--5----------------|----5-----5-----5-----5---|
--------x-x----------------|--3----------------|----5-----5-----5-----5---|
---------------------------|-------------------|----3-----3-----3-----3---|


  E  E  S S E  Q    S S  E      W                   E  E  S S E  Q    S S  E   
----------------------------|--------------------|----------------------------|
----------------------------|--------------------|----------------------------|
------------7--5--------14--|--12----------------|------------7--5--------14--|
--------x-x-7--5----x-x-14--|--12----------------|--------x-x-7--5----x-x-14--|
--------x-x---------x-x-----|--------------------|--------x-x---------x-x-----|
--5--5----------------------|--------------------|--5--5----------------------|


   Q    S S E  Q.     S  S    E  E  S S E  Q    S S  E   
---------------------------|----------------------------|
---------------------------|----------------------------|
--12--------7--5-----------|------------7--5--------14--|
--12----x-x-7--5------5h-7-|--------x-x-7--5----x-x-14--|
--------x-x----------------|--------x-x---------x-x-----|
---------------------------|--5--5----------------------|


   Q    S S E  Q.     S  S    E  E  S S E  Q    S S  E   
---------------------------|----------------------------|
---------------------------|----------------------------|
--12--------7--5-----------|------------7--5--------14--|
--12----x-x-7--5------5h-7-|--------x-x-7--5----x-x-14--|
--------x-x----------------|--------x-x---------x-x-----|
---------------------------|--5--5----------------------|


   Q    S S E  Q.     S  S    E  E  S S E  Q    S S  E   
---------------------------|----------------------------|
---------------------------|----------------------------|
--12--------7--5-----------|------------7--5--------14--|
--12----x-x-7--5------5h-7-|--------x-x-7--5----x-x-14--|
--------x-x----------------|--------x-x---------x-x-----|
---------------------------|--5--5----------------------|


   Q    S S E  Q.     S  S    E  E  S S E  Q    S S  E   
---------------------------|----------------------------|
---------------------------|----------------------------|
--12--------7--5-----------|------------7--5--------14--|
--12----x-x-7--5------5h-7-|--------x-x-7--5----x-x-14--|
--------x-x----------------|--------x-x---------x-x-----|
---------------------------|--5--5----------------------|


   Q    S S E  Q.     S  S    E  E  S S E  Q    S S  E   
---------------------------|----------------------------|
---------------------------|----------------------------|
--12--------7--5-----------|------------7--5--------14--|
--12----x-x-7--5------5h-7-|--------x-x-7--5----x-x-14--|
--------x-x----------------|--------x-x---------x-x-----|
---------------------------|--5--5----------------------|


   Q    S S E  Q.     S  S    E  E  S S E  Q    S S  E   
---------------------------|----------------------------|
---------------------------|----------------------------|
--12--------7--5-----------|------------7--5--------14--|
--12----x-x-7--5------5h-7-|--------x-x-7--5----x-x-14--|
--------x-x----------------|--------x-x---------x-x-----|
---------------------------|--5--5----------------------|


   Q    S S E  Q.     S  S    E  E  S S E  Q    S S  E   
---------------------------|----------------------------|
---------------------------|----------------------------|
--12--------7--5-----------|------------7--5--------14--|
--12----x-x-7--5------5h-7-|--------x-x-7--5----x-x-14--|
--------x-x----------------|--------x-x---------x-x-----|
---------------------------|--5--5----------------------|


   Q    S S E  Q.     S  S    W                   S E.  S E.  S E.  S E.   
---------------------------|-------------------|--------------------------|
---------------------------|-------------------|--------------------------|
--12--------7--5-----------|--5----------------|--------------------------|
--12----x-x-7--5------5h-7-|--5----------------|----5-----5-----5-----5---|
--------x-x----------------|--3----------------|----5-----5-----5-----5---|
---------------------------|-------------------|----3-----3-----3-----3---|


  E  E  S S E  Q    S S  E      Q    S S E  Q.     S  S    W                 
----------------------------|---------------------------|-------------------|
----------------------------|---------------------------|-------------------|
------------7--5--------14--|--12--------7--5-----------|--5----------------|
--------x-x-7--5----x-x-14--|--12----x-x-7--5------5h-7-|--5----------------|
--------x-x---------x-x-----|--------x-x----------------|--3----------------|
--5--5----------------------|---------------------------|-------------------|


  S E.  S E.  S E.  S E.                                                    
--------------------------|------|------|------|------|------|------|------|
--------------------------|------|------|------|------|------|------|------|
--------------------------|------|------|------|------|------|------|------|
----5-----5-----5-----5---|------|------|------|------|------|------|------|
----5-----5-----5-----5---|------|------|------|------|------|------|------|
----3-----3-----3-----3---|------|------|------|------|------|------|------|


------|------|------|------|------|------|------|------|------|------|------|
------|------|------|------|------|------|------|------|------|------|------|
------|------|------|------|------|------|------|------|------|------|------|
------|------|------|------|------|------|------|------|------|------|------|
------|------|------|------|------|------|------|------|------|------|------|
------|------|------|------|------|------|------|------|------|------|------|


                      E  E  S S E  Q    S S  E      Q    S S E  S S Q.      
-------------------|----------------------------|--------------------------|
-------------------|----------------------------|--------------------------|
-------------------|------------7--5--------14--|--12--------7------5------|
-------------------|--------x-x-7--5----x-x-14--|--12----x-x-7--x-x-5------|
-------------------|--------x-x---------x-x-----|--------x-x----x-x--------|
-------------------|--5--5----------------------|--------------------------|


  E  E  S S E  Q    S S  E     E   E  E   E  E   E  E  E   
----------------------------|-----------------------------|
----------------------------|-----12-----10------8-----5--|
------------7--5--------14--|-----12-----11------9-----5--|
--------x-x-7--5----x-x-14--|-----12-----12-----10-----5--|
--------x-x---------x-x-----|-----------------------------|
--5--5----------------------|--x------x------x------x-----|


  E  E  S S E  Q    S S  E      Q    S S E  Q.     S  S  
----------------------------|---------------------------|
----------------------------|---------------------------|
------------7--5--------14--|--12--------7--5-----------|
--------x-x-7--5----x-x-14--|--12----x-x-7--5------5h-7-|
--------x-x---------x-x-----|--------x-x----------------|
--5--5----------------------|---------------------------|


  E  E  S S E  Q    S S  E      Q    S S E  Q.     S  S  
----------------------------|---------------------------|
----------------------------|---------------------------|
------------7--5--------14--|--12--------7--5-----------|
--------x-x-7--5----x-x-14--|--12----x-x-7--5------5h-7-|
--------x-x---------x-x-----|--------x-x----------------|
--5--5----------------------|---------------------------|


  E  E  S S E  Q    S S  E      Q    S S E  Q.     S  S  
----------------------------|---------------------------|
----------------------------|---------------------------|
------------7--5--------14--|--12--------7--5-----------|
--------x-x-7--5----x-x-14--|--12----x-x-7--5------5h-7-|
--------x-x---------x-x-----|--------x-x----------------|
--5--5----------------------|---------------------------|


  E  E  S S E  Q    S S  E      Q    S S E  Q.     S  S  
----------------------------|---------------------------|
----------------------------|---------------------------|
------------7--5--------14--|--12--------7--5-----------|
--------x-x-7--5----x-x-14--|--12----x-x-7--5------5h-7-|
--------x-x---------x-x-----|--------x-x----------------|
--5--5----------------------|---------------------------|


  E  E  S S E  Q    S S  E      Q    S S E  Q.     S  S  
----------------------------|---------------------------|
----------------------------|---------------------------|
------------7--5--------14--|--12--------7--5-----------|
--------x-x-7--5----x-x-14--|--12----x-x-7--5------5h-7-|
--------x-x---------x-x-----|--------x-x----------------|
--5--5----------------------|---------------------------|


  E  E  S S E  Q    S S  E      Q    S S E  Q.     S  S  
----------------------------|---------------------------|
----------------------------|---------------------------|
------------7--5--------14--|--12--------7--5-----------|
--------x-x-7--5----x-x-14--|--12----x-x-7--5------5h-7-|
--------x-x---------x-x-----|--------x-x----------------|
--5--5----------------------|---------------------------|


  E  E  S S E  Q    S S  E      Q    S S E  Q.     S  S  
----------------------------|---------------------------|
----------------------------|---------------------------|
------------7--5--------14--|--12--------7--5-----------|
--------x-x-7--5----x-x-14--|--12----x-x-7--5------5h-7-|
--------x-x---------x-x-----|--------x-x----------------|
--5--5----------------------|---------------------------|


  E  E  S S E  Q    S S  E      Q    S S E  Q.     S  S  
----------------------------|---------------------------|
----------------------------|---------------------------|
------------7--5--------14--|--12--------7--5-----------|
--------x-x-7--5----x-x-14--|--12----x-x-7--5------5h-7-|
--------x-x---------x-x-----|--------x-x----------------|
--5--5----------------------|---------------------------|


  E  E  S S E  Q    S S  E      Q    S S E  Q.     S  S  
----------------------------|---------------------------|
----------------------------|---------------------------|
------------7--5--------14--|--12--------7--5-----------|
--------x-x-7--5----x-x-14--|--12----x-x-7--5------5h-7-|
--------x-x---------x-x-----|--------x-x----------------|
--5--5----------------------|---------------------------|


  fade out                                                     
  E        E  S S E  Q    S S  E      Q    S S E  Q.     S  S  
----------------------------------|---------------------------|
----------------------------------|---------------------------|
------------------7--5--------14--|--12--------7--5-----------|
--------------x-x-7--5----x-x-14--|--12----x-x-7--5------5h-7-|
--------------x-x---------x-x-----|--------x-x----------------|
--5--------5----------------------|---------------------------|


  E  E  S S E  Q    S S  E      Q    S S E  Q.     S  S  
----------------------------|---------------------------|
----------------------------|---------------------------|
------------7--5--------14--|--12--------7--5-----------|
--------x-x-7--5----x-x-14--|--12----x-x-7--5------5h-7-|
--------x-x---------x-x-----|--------x-x----------------|
--5--5----------------------|---------------------------|


  E  E  S S E  Q    S S  E      Q    S S E  Q.     S  S   
----------------------------|---------------------------||
----------------------------|---------------------------||
------------7--5--------14--|--12--------7--5-----------||
--------x-x-7--5----x-x-14--|--12----x-x-7--5------5h-7-||
--------x-x---------x-x-----|--------x-x----------------||
--5--5----------------------|---------------------------||










guitar 2 (solo 1)



     E  E  H.              W                   E  E  H.            
E||---------------------|-------------------|---------------------|
B||---------------------|-------------------|---------------------|
G||---------------------|-------------------|---------------------|
D||--2--2---------------|-------------------|--2--2---------------|
A||--0--0---------------|-------------------|--0--0---------------|
E||---------------------|-------------------|---------------------|


  W                   E  E  H.              W                 
-------------------|---------------------|-------------------|
-------------------|---------------------|-------------------|
-------------------|---------------------|-------------------|
-------------------|--2--2---------------|-------------------|
-------------------|--0--0---------------|-------------------|
-------------------|---------------------|-------------------|


  E  E  H.              Q     H         Q       W                 
---------------------|-------15s--------3----|-------------------|
---------------------|-------15s--------3----|-------------------|
---------------------|-----------------------|-------------------|
--2--2---------------|-----------------------|--7----------------|
--0--0---------------|-----------------------|-------------------|
---------------------|-----------------------|-------------------|


  E   E   E   E   E   E   E.   S     W                    W                 
-----------------12--15----------|--------------------|--------------------|
---------13--15----------15---13-|--13----------------|---L----------------|
-----14--------------------------|--------------------|--------------------|
---------------------------------|--------------------|---L----------------|
---------------------------------|--------------------|--------------------|
---------------------------------|--------------------|--------------------|


  W                   E   E   E   E   E   E   E.   S     W                 
-------------------|-----------------12--15----------|--------------------|
-------------------|---------13--15----------15---13-|--------------------|
-------------------|-----14--------------------------|--12----------------|
--7----------------|---------------------------------|--------------------|
-------------------|---------------------------------|--------------------|
-------------------|---------------------------------|--------------------|


   W                   W                   W                 
--------------------|-------------------|-------------------|
--------------------|-------------------|-------------------|
---L----------------|-------------------|-------------------|
--------------------|-------------------|-------------------|
--------------------|-------------------|-------------------|
--------------------|-------------------|-------------------|


  W                   W                   W                   W                 
-------------------|-------------------|-------------------|-------------------|
-------------------|-------------------|-------------------|-------------------|
-------------------|-------------------|-------------------|-------------------|
-------------------|-------------------|-------------------|-------------------|
-------------------|-------------------|-------------------|-------------------|
-------------------|-------------------|-------------------|-------------------|


  W                   W                   W                 
-------------------|-------------------|-------------------|
-------------------|-------------------|-------------------|
-------------------|-------------------|-------------------|
-------------------|-------------------|--5----------------|
-------------------|-------------------|--3----------------|
-------------------|-------------------|-------------------|


  S E.  S E.  S E.  S E.     W                    Q      Q.     E  Q     
--------------------------|-------------------|--12s----10--------------|
--------------------------|-------------------|-------------------------|
--------------------------|--2----------------|-------------------------|
--------------------------|-------------------|-------------------------|
----5-----5-----5-----5---|-------------------|-------------------------|
----3-----3-----3-----3---|-------------------|-------------------------|


  W                   S E.  S E.  S E.  S E.      H.            E   E   
-------------------|--------------------------|--------------------17--|
-------------------|--------------------------|----------------13------|
-------------------|--------------------------|------------------------|
--5----------------|--------------------------|------------------------|
--3----------------|----5-----5-----5-----5---|--12--------------------|
-------------------|----3-----3-----3-----3---|------------------------|


   W                   W                   W                 
--17----------------|-------------------|-------------------|
--------------------|-------------------|-------------------|
--------------------|-------------------|-------------------|
--------------------|-------------------|-------------------|
--------------------|-------------------|-------------------|
--------------------|-------------------|-------------------|


  W                   H.            Q        W                 
-------------------|---------------------|--17----------------|
-------------------|---------------15----|--------------------|
-------------------|---------------------|--------------------|
-------------------|---------------------|--------------------|
-------------------|---------------------|--------------------|
-------------------|---------------------|--------------------|


  W                   W                   H.            Q     
--L----------------|-------------------|---------------------|
-------------------|-------------------|---------------15----|
-------------------|-------------------|---------------------|
-------------------|-------------------|---------------------|
-------------------|-------------------|---------------------|
-------------------|-------------------|---------------------|


   W                   W                   W                 
--17----------------|--L----------------|-------------------|
--------------------|-------------------|-------------------|
--------------------|-------------------|-------------------|
--------------------|-------------------|-------------------|
--------------------|-------------------|-------------------|
--------------------|-------------------|-------------------|


  H.            Q        W                    W                 
---------------------|--17----------------|---L----------------|
---------------15----|--------------------|--------------------|
---------------------|--------------------|--------------------|
---------------------|--------------------|--------------------|
---------------------|--------------------|--------------------|
---------------------|--------------------|--------------------|


                      W                   W                 
-------------------|-------------------|-------------------|
-------------------|-------------------|-------------------|
-------------------|-------------------|-------------------|
-------------------|-------------------|--5----------------|
-------------------|-------------------|--3----------------|
-------------------|-------------------|-------------------|


  S E.  S E.  S E.  S E.     W                    Q      Q.     E  Q     
--------------------------|-------------------|--12s----10--------------|
--------------------------|-------------------|-------------------------|
--------------------------|--2----------------|-------------------------|
--------------------------|-------------------|-------------------------|
----5-----5-----5-----5---|-------------------|-------------------------|
----3-----3-----3-----3---|-------------------|-------------------------|


  W                   S E.  S E.  S E.  S E.     H.            E   E   
-------------------|--------------------------|-------------------13--|
-------------------|--------------------------|---------------15------|
-------------------|--------------------------|-----------------------|
--5----------------|--------------------------|-----------------------|
--3----------------|----5-----5-----5-----5---|-----------------------|
-------------------|----3-----3-----3-----3---|-----------------------|


   Q    H.              E   E   E   E   E   E   E   E   
--17-----------------|---------------------------------|
---------------------|-----13--15--13--15--13----------|
---------------------|-------------------------12--10--|
---------------------|---------------------------------|
---------------------|---------------------------------|
---------------------|---------------------------------|


   Q    H        E   E      E   S   S  E   S  S S  S S  S  E   E   
------------------------|-------------13-----17---13---13--L------|
------------------------|------13h-15-----15------------------15--|
--10--------------------|--14-------------------------------------|
--------------------15--|-----------------------------------------|
------------------------|-----------------------------------------|
------------------------|-----------------------------------------|


   S   S  S   S  E  H        E     S  S  E  S  S  E  S  S  E   E   E   
--------------------------------|-------------------------------------|
--13h-15------------------------|-------------------------------------|
---------13p-12-10--------------|-------10-------10-------10--10------|
--------------------------------|----12-------12-------12---------12--|
--------------------------------|-------------------------------------|
--------------------------------|-------------------------------------|


   H        E  Q.        E  S  S E  E  S  S E   E   E   
----------------------|--------------------------------|
--10-----------9------|----------------8-----------10--|
----------------------|-----7p-5-7-------10-8--10------|
----------------------|--------------------------------|
----------------------|--------------------------------|
----------------------|--------------------------------|


  E   E   E  S  S S   S  E   E   E      E  E   E  E   E  S S S S  E   
--8---------------------------------|--------------------8-----------|
-----10-----------------------------|----------------10----9---8-----|
---------10--7----7h-10-10--10--10--|--10--7--10--7--------------10--|
---------------10-------------------|--------------------------------|
------------------------------------|--------------------------------|
------------------------------------|--------------------------------|


   S  S S S  E  E   E  E  Q       E   E   S  S  E   E  E   Q     
-----------------------8-------|------------13-13--17-----17----|
-------------------10----------|-----13--15---------------------|
---L-10-7-7-10--7--------------|--------------------------------|
-------------------------------|--------------------------------|
-------------------------------|--------------------------------|
-------------------------------|--------------------------------|


  Q.      E   S   S  S  S  S   S  S  S     S  S E   E   S  S  S  S  E   E   E   
---------18--16h-17--------------------|---------------13-------13-----13--13--|
--------------------18-----------------|------------------13-15----15----------|
-----------------------19-17p-16-15----|--14-------14--------------------------|
------------------------------------15-|-----15--------------------------------|
---------------------------------------|---------------------------------------|
---------------------------------------|---------------------------------------|


  H        E   Q.        E   Q.     E   Q.        E  H.           E   
--L-------------------|------------------------|---------------------|
--------------12------|-----11---------10------|-----9------------L--|
----------------------|------------------------|---------------------|
----------------------|------------------------|---------------------|
----------------------|------------------------|---------------------|
----------------------|------------------------|---------------------|


  W                   E  E  H.              E   E   E    E   E    E   E    E    
-------------------|---------------------|-----19--19b--19--19b--19--19b--19b--|
--L----------------|---------------------|-------------------------------------|
--L----------------|---------------------|-------------------------------------|
-------------------|---------------------|-------------------------------------|
-------------------|---------------------|-------------------------------------|
-------------------|---------------------|-------------------------------------|


  W                   E   H        E   E   E      H.           E  E   
--L----------------|-----17--------L----------|----------------------|
-------------------|------------------17------|----------------------|
-------------------|----------------------17--|--17------------L-----|
-------------------|--------------------------|----------------------|
-------------------|--------------------------|----------------------|
-------------------|--------------------------|----------------------|


  E   E   E   E   E   E   E   E     H        H         
---------15------15------15--17--|--L-----------------|
-----17------17------17----------|--------------------|
---------------------------------|--------------------|
---------------------------------|--------------------|
---------------------------------|--------------------|
---------------------------------|--------------------|


  E   S  S  S  S  S  S  S  S  S  S  S  S  S  S     H        Q    E   E   
-----20-------20-------20-------20-------20----|--22----------------22--|
--------22-------22-------22-------22-------22-|------------------------|
-----------21-------21-------21-------21-------|------------------------|
-----------------------------------------------|------------------------|
-----------------------------------------------|------------------------|
-----------------------------------------------|------------------------|


  E  Q     Q     E   S   S   S  S  
--L-------22----20-------------20-|
--------------------22p-20h-22----|
----------------------------------|
----------------------------------|
----------------------------------|
----------------------------------|


   S   S   S  S  S   S   S  S  S   S   S  S  S   S   S  S  
-------------20------------20------------20------------20-|
--22p-20h-22----22p-20h-22----22p-20h-22----22p-20h-22----|
----------------------------------------------------------|
----------------------------------------------------------|
----------------------------------------------------------|
----------------------------------------------------------|


   S   S   S  S  S   S   S  S  S   S   S  S  S   S   S  S  
-------------20------------20------------20------------20-|
--22p-20h-22----22p-20h-22----22p-20h-22----22p-20h-22----|
----------------------------------------------------------|
----------------------------------------------------------|
----------------------------------------------------------|
----------------------------------------------------------|


   S   S   S  S  S   S   S  S  S   S   S  S  S   S   S  S  
-------------20------------20------------20------------20-|
--22p-20h-22----22p-20h-22----22p-20h-22----22p-20h-22----|
----------------------------------------------------------|
----------------------------------------------------------|
----------------------------------------------------------|
----------------------------------------------------------|


   S   S   S  S  S   S   S  S  S   S   S  S  S   S   S  S  
-------------20------------20------------20------------20-|
--22p-20h-22----22p-20h-22----22p-20h-22----22p-20h-22----|
----------------------------------------------------------|
----------------------------------------------------------|
----------------------------------------------------------|
----------------------------------------------------------|


   S   S   S  S  S   S   S  S  S   S   S  S  S   S   S  S  
-------------20------------20------------20------------20-|
--22p-20h-22----22p-20h-22----22p-20h-22----22p-20h-22----|
----------------------------------------------------------|
----------------------------------------------------------|
----------------------------------------------------------|
----------------------------------------------------------|


   S   S   S  S  S   S   S   S  S   S   S   S  S   S   S  S  
-------------20---------------------------------------------|
--22p-20h-22----22p-20h-22p-20-22p-20h-22p-20-22p-20h-22-20-|
------------------------------------------------------------|
------------------------------------------------------------|
------------------------------------------------------------|
------------------------------------------------------------|


  E   E   E   E  H           E  E   S  S   S   S  S  S   S  S  S  S  S   S  
-----22--20--22-----------|--------15--------------------------------------|
--L-----------------------|-----------17p-15h-17-17-17p-15-----------------|
--------------------------|--------------------------------17-14-14-14h-17-|
--------------------------|------------------------------------------------|
--------------------------|------------------------------------------------|
--------------------------|------------------------------------------------|


  E   E   E   Q.     Q       E   E   E   E   E   E   E   E   
--------------------------|---------12----------12----------|
--------------------------|-------------13----------13------|
--L--14-------------------|-----14----------14----------14--|
---------14--17-----------|---------------------------------|
--------------------------|---------------------------------|
--------------------------|---------------------------------|


  Q     E   Q.     Q       E   E   E   E   E   E   E   E   
-------12---------------|---------12----------12----------|
-----------13-----------|-------------13----------13------|
--L---------------------|-----14----------14----------14--|
------------------------|---------------------------------|
------------------------|---------------------------------|
------------------------|---------------------------------|


  fade out                                                            
  Q         E   Q.     Q       E   S   S  S  E.   S   S  S  S E   E   
-----------12---------------|------------12--------------------------|
---------------13-----------|-----13h-15----13-----------------------|
--L-------------------------|--------------------14p-12----14--------|
----------------------------|---------------------------14-------14--|
----------------------------|----------------------------------------|
----------------------------|----------------------------------------|


   E.   S E   E  S  E.   E.   S    E   S   S  S  S   S  S  S   S  S  S  E   E   
--------------------------------|----------------------------------------------|
-------------13----15---13---15-|-----15p-13----15p-13----15p-13----15-13--13--|
--12---14-----------------------|------------14--------14--------14------------|
--------------------------------|----------------------------------------------|
--------------------------------|----------------------------------------------|
--------------------------------|----------------------------------------------|


  E   S   S  S  S   S  S  S   S  S  S  E   E      W                  
----------------------------------------------|--------------------||
--L--15p-13----15p-13----15p-13----15-13--13--|---L----------------||
------------14--------14--------14------------|--------------------||
----------------------------------------------|--------------------||
----------------------------------------------|--------------------||
----------------------------------------------|--------------------||










     E  E  H.              W                   E  E  H.            
E||---------------------|-------------------|---------------------|
B||---------------------|-------------------|---------------------|
G||---------------------|-------------------|---------------------|
D||--2--2---------------|-------------------|--2--2---------------|
A||--0--0---------------|-------------------|--0--0---------------|
E||---------------------|-------------------|---------------------|


  W                   E  E  H.              W                 
-------------------|---------------------|-------------------|
-------------------|---------------------|-------------------|
-------------------|---------------------|-------------------|
-------------------|--2--2---------------|-------------------|
-------------------|--0--0---------------|-------------------|
-------------------|---------------------|-------------------|


  E  E  H.                              E  E  E  E  E  E  E.  S  
---------------------|-------|-------|--------------------------|
---------------------|-------|-------|--------------5--8--------|
---------------------|-------|-------|--------5--7--------7---5-|
--2--2---------------|-------|-------|-----7--------------------|
--0--0---------------|-------|-------|--------------------------|
---------------------|-------|-------|--------------------------|


  W                   W                   W                 
-------------------|-------------------|-------------------|
-------------------|-------------------|-------------------|
-------------------|-------------------|-------------------|
--7----------------|--L----------------|--7----------------|
-------------------|-------------------|-------------------|
-------------------|-------------------|-------------------|


  E  E  E  E  E  E  E.  S    W                   W                 
--------------------------|-------------------|-------------------|
--------------5--8--------|-------------------|-------------------|
--------5--7--------7---5-|-------------------|-------------------|
-----7--------------------|--5----------------|--L----------------|
--------------------------|-------------------|-------------------|
--------------------------|-------------------|-------------------|


  W                   W                   W                   W                 
-------------------|-------------------|-------------------|-------------------|
-------------------|-------------------|-------------------|-------------------|
-------------------|-------------------|-------------------|-------------------|
-------------------|-------------------|-------------------|-------------------|
-------------------|-------------------|-------------------|-------------------|
-------------------|-------------------|-------------------|-------------------|


  W                   W                   W                   W                 
-------------------|-------------------|-------------------|-------------------|
-------------------|-------------------|-------------------|-------------------|
-------------------|-------------------|-------------------|-------------------|
-------------------|-------------------|-------------------|-------------------|
-------------------|-------------------|-------------------|-------------------|
-------------------|-------------------|-------------------|-------------------|


-------------------|-------------------|-------------------|
-------------------|-------------------|-------------------|
-------------------|-------------------|-------------------|
-------------------|-------------------|-------------------|
-------------------|-------------------|-------------------|
-------------------|-------------------|-------------------|


  Q    Q.      E   Q                                                     
--------------12s--3----|-------|-------|-------|-------|-------|-------|
------------------------|-------|-------|-------|-------|-------|-------|
------------------------|-------|-------|-------|-------|-------|-------|
------------------------|-------|-------|-------|-------|-------|-------|
------------------------|-------|-------|-------|-------|-------|-------|
------------------------|-------|-------|-------|-------|-------|-------|


-------|-------|-------|-------|-------|-------|-------|-------|-------|-------|
-------|-------|-------|-------|-------|-------|-------|-------|-------|-------|
-------|-------|-------|-------|-------|-------|-------|-------|-------|-------|
-------|-------|-------|-------|-------|-------|-------|-------|-------|-------|
-------|-------|-------|-------|-------|-------|-------|-------|-------|-------|
-------|-------|-------|-------|-------|-------|-------|-------|-------|-------|


   W                    W                                     
--22----------------|---L----------------|-------------------|
--------------------|---L----------------|-------------------|
--------------------|--------------------|-------------------|
--------------------|--------------------|-------------------|
--------------------|--------------------|-------------------|
--------------------|--------------------|-------------------|


  W                                                                             
-------------------|-------------------|-------------------|-------------------|
-------------------|-------------------|-------------------|-------------------|
-------------------|-------------------|-------------------|-------------------|
-------------------|-------------------|-------------------|-------------------|
-------------------|-------------------|-------------------|-------------------|
-------------------|-------------------|-------------------|-------------------|


  Q    Q.      E   Q                                             
--------------12s--3----|-------------------|-------------------|
------------------------|-------------------|-------------------|
------------------------|-------------------|-------------------|
------------------------|-------------------|-------------------|
------------------------|-------------------|-------------------|
------------------------|-------------------|-------------------|


-------------------|-------------------|-------------------|-------------------|
-------------------|-------------------|-------------------|-------------------|
-------------------|-------------------|-------------------|-------------------|
-------------------|-------------------|-------------------|-------------------|
-------------------|-------------------|-------------------|-------------------|
-------------------|-------------------|-------------------|-------------------|


-------------------|-------------------|-------------------|-------------------|
-------------------|-------------------|-------------------|-------------------|
-------------------|-------------------|-------------------|-------------------|
-------------------|-------------------|-------------------|-------------------|
-------------------|-------------------|-------------------|-------------------|
-------------------|-------------------|-------------------|-------------------|


-------------------|-------------------|-------------------|-------------------|
-------------------|-------------------|-------------------|-------------------|
-------------------|-------------------|-------------------|-------------------|
-------------------|-------------------|-------------------|-------------------|
-------------------|-------------------|-------------------|-------------------|
-------------------|-------------------|-------------------|-------------------|


-------------------|-------------------|-------------------|
-------------------|-------------------|-------------------|
-------------------|-------------------|-------------------|
-------------------|-------------------|-------------------|
-------------------|-------------------|-------------------|
-------------------|-------------------|-------------------|


  H        E   Q.        E   Q.     E   Q.        E  H.           E   
----------------------|------------------------|---------------------|
----------------------|------------------------|---------------------|
--------------12------|-----11---------10------|-----9------------L--|
----------------------|------------------------|---------------------|
----------------------|------------------------|---------------------|
----------------------|------------------------|---------------------|


  W                   W                   E   E   E    E   E    E   E    E    
-------------------|-------------------|-------------------------------------|
-------------------|-------------------|-----20--20b--20--20b--20--20b--20b--|
--L----------------|-------------------|-------------------------------------|
-------------------|-------------------|-------------------------------------|
-------------------|-------------------|-------------------------------------|
-------------------|-------------------|-------------------------------------|


   W                                                                 
--------------------|---------------|---------------|---------------|
---L----------------|---------------|---------------|---------------|
--------------------|---------------|---------------|---------------|
--------------------|---------------|---------------|---------------|
--------------------|---------------|---------------|---------------|
--------------------|---------------|---------------|---------------|


---------------|---------------|---------------|---------------|---------------|
---------------|---------------|---------------|---------------|---------------|
---------------|---------------|---------------|---------------|---------------|
---------------|---------------|---------------|---------------|---------------|
---------------|---------------|---------------|---------------|---------------|
---------------|---------------|---------------|---------------|---------------|


---------------|---------------|---------------|---------------|---------------|
---------------|---------------|---------------|---------------|---------------|
---------------|---------------|---------------|---------------|---------------|
---------------|---------------|---------------|---------------|---------------|
---------------|---------------|---------------|---------------|---------------|
---------------|---------------|---------------|---------------|---------------|


                  E   E   E   E  H                                             
---------------|-----22--20--22-----------|-----------|-----------|-----------|
---------------|--------------------------|-----------|-----------|-----------|
---------------|--------------------------|-----------|-----------|-----------|
---------------|--------------------------|-----------|-----------|-----------|
---------------|--------------------------|-----------|-----------|-----------|
---------------|--------------------------|-----------|-----------|-----------|


  E  E  E   E  E  E   E  E     Q    E   Q.     Q                             
----------------------------|-----------------------|-------|-------|-------|
----------------------------|-----------------------|-------|-------|-------|
--------9---------9---------|-------9---------------|-------|-------|-------|
-----7-----10--7-----10--7--|----------10-----------|-------|-------|-------|
----------------------------|-----------------------|-------|-------|-------|
----------------------------|-----------------------|-------|-------|-------|


-------|-------||
-------|-------||
-------|-------||
-------|-------||
-------|-------||
-------|-------||










guitar 4 (clean)



E||-------|-------|-------|-------|-------|-------|-------|-------|-------|
B||-------|-------|-------|-------|-------|-------|-------|-------|-------|
G||-------|-------|-------|-------|-------|-------|-------|-------|-------|
D||-------|-------|-------|-------|-------|-------|-------|-------|-------|
A||-------|-------|-------|-------|-------|-------|-------|-------|-------|
E||-------|-------|-------|-------|-------|-------|-------|-------|-------|


-------|-------|-------|-------|-------|-------|-------|-------|-------|-------|
-------|-------|-------|-------|-------|-------|-------|-------|-------|-------|
-------|-------|-------|-------|-------|-------|-------|-------|-------|-------|
-------|-------|-------|-------|-------|-------|-------|-------|-------|-------|
-------|-------|-------|-------|-------|-------|-------|-------|-------|-------|
-------|-------|-------|-------|-------|-------|-------|-------|-------|-------|


-------|-------|-------|-------|-------|-------|-------|-------|-------|-------|
-------|-------|-------|-------|-------|-------|-------|-------|-------|-------|
-------|-------|-------|-------|-------|-------|-------|-------|-------|-------|
-------|-------|-------|-------|-------|-------|-------|-------|-------|-------|
-------|-------|-------|-------|-------|-------|-------|-------|-------|-------|
-------|-------|-------|-------|-------|-------|-------|-------|-------|-------|


-------|-------|-------|-------|-------|-------|-------|-------|-------|-------|
-------|-------|-------|-------|-------|-------|-------|-------|-------|-------|
-------|-------|-------|-------|-------|-------|-------|-------|-------|-------|
-------|-------|-------|-------|-------|-------|-------|-------|-------|-------|
-------|-------|-------|-------|-------|-------|-------|-------|-------|-------|
-------|-------|-------|-------|-------|-------|-------|-------|-------|-------|


-------|-------|-------|-------|-------|-------|-------|-------|-------|-------|
-------|-------|-------|-------|-------|-------|-------|-------|-------|-------|
-------|-------|-------|-------|-------|-------|-------|-------|-------|-------|
-------|-------|-------|-------|-------|-------|-------|-------|-------|-------|
-------|-------|-------|-------|-------|-------|-------|-------|-------|-------|
-------|-------|-------|-------|-------|-------|-------|-------|-------|-------|


                                          Q     Q     S  S E   S  S E   
-------|-------|-------|-------|-------|--------8-----8--8-----8--8----|
-------|-------|-------|-------|-------|-------10----10-10----10-10----|
-------|-------|-------|-------|-------|--------8-----8--8-----8--8----|
-------|-------|-------|-------|-------|-------------------------------|
-------|-------|-------|-------|-------|-------------------------------|
-------|-------|-------|-------|-------|-------------------------------|


   E   E  E   E  S  S  S  S S  S E     E   E   E   E   E   E   E   E   
--10---8------8-----8--8--8---------|----------8-------8-------8------|
--10--10-----10----10-10-10-9-10----|------8--10---8--10---8--10---8--|
--10---8------8-----8--8--8-7--8----|------8---8---8---8---8---8---8--|
----------------------------9-10----|-----10------10------10------10--|
------------------------------------|---------------------------------|
------------------------------------|---------------------------------|


   E   E   E   S  S E  Q.        Q     Q     S  S E   S  S E   
---8-------8-----------7------|--------8-----8--8-----8--8----|
--10---8--10---8-10----9------|-------10----10-10----10-10----|
---8---8---8---8--8----7------|--------8-----8--8-----8--8----|
------10------10-10----9------|-------------------------------|
------------------------------|-------------------------------|
------------------------------|-------------------------------|


   E   E  E   E  S  S  S  S S  S E     E   E   E   E   E   E   E   E   
--10---8------8-----8--8--8---------|----------8-------8-------8------|
--10--10-----10----10-10-10-9-10----|------8--10---8--10---8--10---8--|
--10---8------8-----8--8--8-7--8----|------8---8---8---8---8---8---8--|
----------------------------9-10----|-----10------10------10------10--|
------------------------------------|---------------------------------|
------------------------------------|---------------------------------|


   E   E   E   S  S E  Q.        Q     Q     S  S E   S  S E   
---8-------8-----------7------|--------8-----8--8-----8--8----|
--10---8--10---8-10----9------|-------10----10-10----10-10----|
---8---8---8---8--8----7------|--------8-----8--8-----8--8----|
------10------10-10----9------|-------------------------------|
------------------------------|-------------------------------|
------------------------------|-------------------------------|


   E   E  E   E  S  S  S  S S  S E     E   E   E   E   E   E   E   E   
--10---8------8-----8--8--8---------|----------8-------8-------8------|
--10--10-----10----10-10-10-9-10----|------8--10---8--10---8--10---8--|
--10---8------8-----8--8--8-7--8----|------8---8---8---8---8---8---8--|
----------------------------9-10----|-----10------10------10------10--|
------------------------------------|---------------------------------|
------------------------------------|---------------------------------|


   E   E   E   S  S E  Q.        E   E   E   E   E   E   E   E   
---8-------8-----------7------|----------8-------8-------8------|
--10---8--10---8-10----9------|------8--10---8--10---8--10---8--|
---8---8---8---8--8----7------|------8---8---8---8---8---8---8--|
------10------10-10----9------|-----10------10------10------10--|
------------------------------|---------------------------------|
------------------------------|---------------------------------|


  E   E   E   E   E   E   E   E     E   E   E   E   E   E   E   E   
----------8-------8-------8------|----------8-------8-------8------|
------8--10---8--10---8--10---8--|------8--10---8--10---8--10---8--|
------8---8---8---8---8---8---8--|------8---8---8---8---8---8---8--|
-----10------10------10------10--|-----10------10------10------10--|
---------------------------------|---------------------------------|
---------------------------------|---------------------------------|


   E   E   E   S  S E  Q.        E  Q.     E  Q.        E  H.           E   
---8-------8-----------7------|-----6---------5------|-----4------------L--|
--10---8--10---8-10----9------|-----8---------7------|-----6------------L--|
---8---8---8---8--8----7------|-----6---------5------|-----4------------L--|
------10------10-10----9------|-----8---------7------|-----6------------L--|
------------------------------|----------------------|---------------------|
------------------------------|----------------------|---------------------|


  W                                                                             
--L----------------|-------------------|-------------------|-------------------|
--L----------------|-------------------|-------------------|-------------------|
--L----------------|-------------------|-------------------|-------------------|
--L----------------|-------------------|-------------------|-------------------|
-------------------|-------------------|-------------------|-------------------|
-------------------|-------------------|-------------------|-------------------|


-------------------|-------------------|-------------------|-------------------|
-------------------|-------------------|-------------------|-------------------|
-------------------|-------------------|-------------------|-------------------|
-------------------|-------------------|-------------------|-------------------|
-------------------|-------------------|-------------------|-------------------|
-------------------|-------------------|-------------------|-------------------|


-------------------|-------------------|-------------------|-------------------|
-------------------|-------------------|-------------------|-------------------|
-------------------|-------------------|-------------------|-------------------|
-------------------|-------------------|-------------------|-------------------|
-------------------|-------------------|-------------------|-------------------|
-------------------|-------------------|-------------------|-------------------|


-------------------|-------------------|-------------------|-------------------|
-------------------|-------------------|-------------------|-------------------|
-------------------|-------------------|-------------------|-------------------|
-------------------|-------------------|-------------------|-------------------|
-------------------|-------------------|-------------------|-------------------|
-------------------|-------------------|-------------------|-------------------|


-------------------|-------------------|-------------------|-------------------|
-------------------|-------------------|-------------------|-------------------|
-------------------|-------------------|-------------------|-------------------|
-------------------|-------------------|-------------------|-------------------|
-------------------|-------------------|-------------------|-------------------|
-------------------|-------------------|-------------------|-------------------|


-------------------|-------------------|-------------------|-------------------|
-------------------|-------------------|-------------------|-------------------|
-------------------|-------------------|-------------------|-------------------|
-------------------|-------------------|-------------------|-------------------|
-------------------|-------------------|-------------------|-------------------|
-------------------|-------------------|-------------------|-------------------|


-------------------|-------------------|-------------------|-------------------|
-------------------|-------------------|-------------------|-------------------|
-------------------|-------------------|-------------------|-------------------|
-------------------|-------------------|-------------------|-------------------|
-------------------|-------------------|-------------------|-------------------|
-------------------|-------------------|-------------------|-------------------|


-------------------||
-------------------||
-------------------||
-------------------||
-------------------||
-------------------||




Duration Legend
---------------
W - whole
H - half
Q - quarter
E - 8th
S - 16th
T - 32nd
X - 64th
. - note dotted
|-n-|  - n-tuplets


Tablature Legend
----------------
L - tied note
x - dead note
g - grace note
(n) - ghost note
> - accentuded note
NH - natural harmonic
AH - artificial harmonic
TH - tapped harmonic
SH - semi harmonic
PH - pitch harmonic
h - hammer on
p - pull off
b - bend
br - bendRelease
pb - preBend
pbr - preBendRelease
brb - bendReleaseBend
\n/ - tremolo bar dip
\n - tremolo bar dive
-/n - tremolo bar Release up
/n\ - tremolo bar inverted dip
/n - tremolo bar return
-\n - tremolo bar Release down
S - shift slide
s - legato slide
/ -  slide into from below or out of upwards
\ -  slide into from above or out of downwards
~ - vibrato
W - wide vibrato
tr - trill
TP - tremolo picking
T - tapping
S - slap
P - pop
< - fade in
^ - brush up
v - brush down
Tap to rate this tab
# A B C D E F G H I J K L M N O P Q R S T U V W X Y Z