Song name
# A B C D E F G H I J K L M N O P Q R S T U V W X Y Z

Deep Purple - Perfect Strangers tab

                               Perfect Strangers
                               Deep Purple

#1 Riff:
Rep 4x:

E|-------------------------------------------------------------|
B|------------------------- 6/8-8------------------------------|
G|---5/7-7------5/7------5/7-7---------------------------------|
D|---5/7-7------5/7------3/5-5---------------------------------|
A|---3/5-5------3/5--------------------------------------------|
E|-------------------------------------------------------------|


#2 riff:
Rep 4x:

E|-------------------------------------------------------------|
B|------------------------- -----------------------------------|
G|--2-------0--------------------------------------------------|
D|---------------2---------------------------------------------|
A|------------------------0---3---0------0---------------------|
E|---------------------3---------------3-----------------------|

Rep 4x:

E|-------------------------------------------------------------|
B|------------------------- 6/8-8------------------------------|
G|---5/7-7------5/7------5/7-7---------------------------------|
D|---5/7-7------5/7------3/5-5---------------------------------|
A|---3/5-5------3/5--------------------------------------------|
E|-------------------------------------------------------------|

Rep 4x:

E|-------------------------------------------------------------|
B|------------------------- -----------------------------------|
G|--2-------0--------------------------------------------------|
D|---------------2---------------------------------------------|
A|------------------------0---3---0------0---------------------|
E|---------------------3---------------3-----------------------|

#3 riff:
E|--------------------------------------------------------------------|
B|--------------------------------------------------------------------|
G|-------------------5--5--5--5-----7--7--7--7------------------------|
D|----3--3--3--3-----5--5--5--5-----7--7--7--7-------5--5--5---5------|
A|----3--3--3--3-----3--3--3--3-----5--5--5--5-------5--5--5---5------|
E|----1--1--1--1-----------------------------------------3--3-- 3--3--|


E|----------------------------------------4-4-4-4-4-4-4-4------3-3-3-3-3-3-3-3--|
B|----------------------------------------5-5-5-5-5-5-5-5------5-5-5-5-5-5-5-5--|
G|--7--7--7--7-----5--5--5--5---------4-4-4-4-4-4-4-4------4-4-4-4-4-4-4-4------|
D|--7--7--7--7-----5--5--5--5---------------------------------------------------|
A|--5--5--5--5-----3--3--3--3---------------------------------------------------|
E|------------------------------------------------------------------------------|


E|-------------------------------------------------------------------------|
B|-------------------------------------------------------------------------|
G|-------------------------------------------------------------------------|
D|----9-9-9---10--10-10---7-7-7---9-9-9---5-5-5---9-9-9----5-5-5-5-5-------|
A|----7-7-7---8---8--8----5-5-5---7-7-7---3-3-3---7-7-7----7-7-7-7-7-------|
E|-------------------------------------------------------------------------|

E|-------------------------------------------------------------------------|
B|-------------------------------------------------------------------------|
G|-------------------------------------------------------------------------|
D|----9-9-9---10--10-10---7-7-7---9-9-9----5-5-5---9-9-9----5-5-5-5-5------|
A|----7-7-7---8---8--8----5-5-5---7-7-7----3-3-3---7-7-7----7-7-7-7-7------|
E|-------------------------------------------------------------------------|


E|-------------------------------------------------------------------------|
B|-------------------------------------------------------------------------|
G|-------------------------------------------------------------------------|
D|----9-9-9---10--10-10---7-7-7---9-9-9---5-5-5---9-9-9----5-5-5-5-5-------|
A|----7-7-7---8---8--8----5-5-5---7-7-7---3-3-3---7-7-7----7-7-7-7-7-------|
E|-------------------------------------------------------------------------|

E|-------------------------------------------------------------------------|
B|-------------------------------------------------------------------------|
G|-------------------------------------------------------------------------|
D|----9-9-9---10--10-10---7-7-7---9-9-9---7-7-7---5-5-5---3-3-3------------|
A|----7-7-7---8---8--8----5-5-5---7-7-7---5-5-5---3-3-3---1-1-1------------|
E|-------------------------------------------------------------------------|


E|-------------------------------------------------------------------------|
B|-------------------------------------------------------------------------|
G|-------------------------------------------------------------------------|
D|--9-9-9---7-7-7---5-5-5---3-3-3----2-------------------------------------|
A|--9-9-9---7-7-7---5-5-5---3-3-3----2-------------------------------------|
E|--7-7-7---5-5-5---3-3-3---1-1-1------------------------------------------|

Rep 4x:

E|-------------------------------------------------------------------------|
B|------------------------- 6/8-8------------------------------------------|
G|---5/7-7------5/7------5/7-7---------------------------------------------|
D|---5/7-7------5/7------3/5-5---------------------------------------------|
A|---3/5-5------3/5--------------------------------------------------------|
E|-------------------------------------------------------------------------|

Rep 4x:

E|-------------------------------------------------------------------------|
B|------------------------- -----------------------------------------------|
G|--2-------0--------------------------------------------------------------|
D|---------------2---------------------------------------------------------|
A|------------------------0---3---0------0---------------------------------|
E|---------------------3---------------3-----------------------------------|


#3 riff:
E|-------------------------------------------------------------------------|
B|-------------------------------------------------------------------------|
G|-------------------5--5--5--5-----7--7--7--7-----------------------------|
D|----3--3--3--3-----5--5--5--5-----7--7--7--7-------5--5--5---5-----------|
A|----3--3--3--3-----3--3--3--3-----5--5--5--5-------5--5--5---5-----------|
E|----1--1--1--1-----------------------------------------3--3-- 3--3-------|


E|----------------------------------------4-4-4-4-4-4-4-4------3-3-3-3-3-3-3-3--|
B|----------------------------------------5-5-5-5-5-5-5-5------5-5-5-5-5-5-5-5--|
G|--7--7--7--7-----5--5--5--5---------4-4-4-4-4-4-4-4------4-4-4-4-4-4-4-4------|
D|--7--7--7--7-----5--5--5--5---------------------------------------------------|
A|--5--5--5--5-----3--3--3--3---------------------------------------------------|
E|------------------------------------------------------------------------------|

|------------------------------------------------------------------------|
B|-----------------------------------------------------------------------|
G|-----------------------------------------------------------------------|
D|----9-9-9---10--10-10---7-7-7---9-9-9---5-5-5---9-9-9----5-5-5-5-5-----|
A|----7-7-7---8---8--8----5-5-5---7-7-7---3-3-3---7-7-7----7-7-7-7-7-----|
E|-----------------------------------------------------------------------|

E|-----------------------------------------------------------------------|
B|-----------------------------------------------------------------------|
G|-----------------------------------------------------------------------|
D|----9-9-9---10--10-10---7-7-7---9-9-9---5-5-5---9-9-9----5-5-5-5-5-----|
A|----7-7-7---8---8--8----5-5-5---7-7-7---3-3-3---7-7-7----7-7-7-7-7-----|
E|-----------------------------------------------------------------------|


E|-----------------------------------------------------------------------|
B|-----------------------------------------------------------------------|
G|-----------------------------------------------------------------------|
D|----9-9-9---10--10-10---7-7-7---9-9-9---5-5-5---9-9-9----5-5-5-5-5-----|
A|----7-7-7---8---8--8----5-5-5---7-7-7---3-3-3---7-7-7----7-7-7-7-7-----|
E|-----------------------------------------------------------------------|

E|-----------------------------------------------------------------------|
B|-----------------------------------------------------------------------|
G|-----------------------------------------------------------------------|
D|----9-9-9---10--10-10---7-7-7---9-9-9---7-7-7---5-5-5---3-3-3----------|
A|----7-7-7---8---8--8----5-5-5---7-7-7---5-5-5---3-3-3---1-1-1----------|
E|-----------------------------------------------------------------------|
Tap to rate this tab
 
# A B C D E F G H I J K L M N O P Q R S T U V W X Y Z