Song name
# A B C D E F G H I J K L M N O P Q R S T U V W X Y Z

Deep Purple - Slow Train tab

-------------------------------------------------------------------------------
Deep Purple-Slow Train
Album: Fireball 25th Anniversary Edition
-------------------------------------------------------------------------------

Intro riff:
e|--------------------------------------------------------------|
B|--------------------------------------------------------------|
G|--------------------------------------------------------------| 2x
D|--------------------------------------------------------------|
A|-------------------------3-------------------3----------------|
E|-0-3-5-0-3-5-0-3-5-0-3-5---5-----0-3-5-0-3-5---5-3-0-3-5------|

e|----------------------------------------------------------------------|
B|----------------------------------------------------------------------|
G|----------------------------------------------------------------------|
D|---------------------------------------------------------5---7--------|
A|---3-5-3-5h6p5-3-------3---5-3------3-5-3-5h6p5-3----5-7---7----------|
E|-5---------------5-3-5---5-----5--5---------------5-------------------|

1st Verse
e|----------------------------------|
B|----------------------------------|
G|----------------------------------| 4x
D|-7-5-7-5-7-12-10-9-10-12----------|
A|----------------------------------|
E|----------------------------------|

Chorus
e|----------------------------------|
B|----------------------------------|
G|----------------------------------| 2x
D|-7-7-7-7-7-7-7-7-5-5-5-5-5-5-5-5--|
A|-7-7-7-7-7-7-7-7-5-5-5-5-5-5-5-5--|
E|-5-5-5-5-5-5-5-5-3-3-3-3-3-3-3-3--|

2nd Verse
e|----------------------------------|
B|----------------------------------|
G|----------------------------------| 4x
D|-7-5-7-5-7-12-10-9-10-12----------|
A|----------------------------------|
E|----------------------------------|

e|-----------------------|
B|-----------------------|
G|-5---------------------|
D|---7-5-----------------|
A|-------7-5-------------|
E|-----------8-5---------|


Intro riff:
e|--------------------------------------------------------------|
B|--------------------------------------------------------------|
G|--------------------------------------------------------------| 2x
D|--------------------------------------------------------------|
A|-------------------------3-------------------3----------------|
E|-0-3-5-0-3-5-0-3-5-0-3-5---5-----0-3-5-0-3-5---5-3-0-3-5------|

e|----------------------------------------------------------------------|
B|----------------------------------------------------------------------|
G|----------------------------------------------------------------------|
D|---------------------------------------------------------5---7--------|
A|---3-5-3-5h6p5-3-------3---5-3------3-5-3-5h6p5-3----5-7---7----------|
E|-5---------------5-3-5---5-----5--5---------------5-------------------|

3rd verse
e|----------------------------------|
B|----------------------------------|
G|----------------------------------| 4x
D|-7-5-7-5-7-12-10-9-10-12----------|
A|----------------------------------|
E|----------------------------------|

Chorus
e|----------------------------------|
B|----------------------------------|
G|----------------------------------| 2x
D|-7-7-7-7-7-7-7-7-5-5-5-5-5-5-5-5--|
A|-7-7-7-7-7-7-7-7-5-5-5-5-5-5-5-5--|
E|-5-5-5-5-5-5-5-5-3-3-3-3-3-3-3-3--|

4th verse
e|----------------------------------|
B|----------------------------------|
G|----------------------------------| 4x
D|-7-5-7-5-7-12-10-9-10-12----------|
A|----------------------------------|
E|----------------------------------|

e|-----------------------|
B|-----------------------|
G|-5---------------------|
D|---7-5-----------------|
A|-------7-5-------------|
E|-----------8-5---------|

Guitar+organ solo

After the solo comes the intro riff again

5th verse
e|----------------------------------|
B|----------------------------------|
G|----------------------------------| 4x
D|-7-5-7-5-7-12-10-9-10-12----------|
A|----------------------------------|
E|----------------------------------|

Chorus
e|----------------------------------|
B|----------------------------------|
G|----------------------------------| 2x
D|-7-7-7-7-7-7-7-7-5-5-5-5-5-5-5-5--|
A|-7-7-7-7-7-7-7-7-5-5-5-5-5-5-5-5--|
E|-5-5-5-5-5-5-5-5-3-3-3-3-3-3-3-3--|

6th verse
e|----------------------------------|
B|----------------------------------|
G|----------------------------------| 4x
D|-7-5-7-5-7-12-10-9-10-12----------|
A|----------------------------------|
E|----------------------------------|

e|-----------------------|
B|-----------------------|
G|-5---------------------|
D|---7-5-----------------|
A|-------7-5-------------|
E|-----------8-5---------|
Tap to rate this tab
# A B C D E F G H I J K L M N O P Q R S T U V W X Y Z