Song name
# A B C D E F G H I J K L M N O P Q R S T U V W X Y Z

Deep Purple - Lucille tab

-------------------------------------------------------------------------------
Deep Purple-Lucille
Album:Made in Japan
-------------------------------------------------------------------------------

Intro 
(0.44)            (0.59)
e|---------------------------------------------------------------------------|
B|-10-------------10--10-10-10-10-10-10-10---8-10-10---8-10-10---8-10-10-----|
G|----9-9-9--------------------------------9---------9---------9-------------|
D|----------5tr7-------------------------------------------------------------|
A|---------------------------------------------------------------------------|
E|---------------------------------------------------------------------------|

                P.M--|

e|---------------------------------------------------------------------------|
B|---8-10-10-10--------------------------------------------------------------|
G|-9-------------------5b---------5b-------5b----------5b-(25x)--------------|
D|-----------------5------7---5-7----7-5-7----7---5-7----------7---5-7-------|
A|---------------7----------x-------------------x----------------x-----------|
E|---------------------------------------------------------------------------|

e|----------------------------------------------------------8----------------|
B|------------------------------------10-10-8---8-10---8-10---10---8-8-10----|
G|--5b----------5---7---5-----------9---------9------9-----------9-----------|
D|-----7---5-7----7---7---7---5-7--------------------------------------------|
A|-------x------------------7------------------------------------------------|
E|---------------------------------------------------------------------------|

e|---------8-------8--------8----8----8----8-8-------------------------------|
B|---8-10-----8-10-----8-10---10---10---10-----10---8-10-10-10-10-10-10-10---|
G|----------9--------9----------------------------9--------------------------|
D|---------------------------------------------------------------------------|
A|---------------------------------------------------------------------------|
E|---------------------------------------------------------------------------|

e|--------------------12-10-8-----------12--10-8---------8-12-10-8-----------|
B|--10-10-10-10-10------------10---8-10----------10-8-10-----------10-8---8--|
G|-------------------------------9--------------------------------------9----|
D|---------------------------------------------------------------------------|
A|---------------------------------------------------------------------------|
E|---------------------------------------------------------------------------|

e|-----8-8-7-----------------------------------------------------------------|
B|--10-------10-8---8/10------8----8---------------8----8--------------------|
G|----------------9--------/9---/9---9-7-5-7----/9---/9---9-5-7---5----------|
D|-------------------------------------------7------------------7------------|
A|---------------------------------------------------------------------------|
E|---------------------------------------------------------------------------|

e|---------------------------------------------------------------------------|
B|-----8-8-8----8-8-8----8---8---8---8---8---8---8---8---8---8---8---8-8-8---|
G|--/9-------/9-------/9---9---9---9---9---9---9---9---9---9---9---9---------|
D|---------------------------------------------------------------------------|
A|---------------------------------------------------------------------------|
E|---------------------------------------------------------------------------|

e|---------------------------------8-8---------------15b17-15b17-15b17-15b17-|
B|---11-10-8-10---8-10---8-10-8-10-----10---8-10---8-------------------------|
G|-9------------9------9------------------9------9---------------------------|
D|---------------------------------------------------------------------------|
A|---------------------------------------------------------------------------|
E|---------------------------------------------------------------------------|

                      P.M.------------------------------
e|--15b17-15b17-15b17-------------------------------------8------------------| 
B|--------------------10-10-10-10-10-10-10-10-10-10-10-10--------------------| 
G|---------------------------------------------------------------------------| 
D|---------------------------------------------------------------------------| 
A|---------------------------------------------------------------------------| 
E|---------------------------------------------------------------------------| 
   
   P.M.-------------------------------

e|--------------------------------------8------------------------------------|         
B|--10-10-10-10-10-10-10-10-10-10-10-10----10-10-10-10-10-10-10-10-10-10-10--| 
G|---------------------------------------------------------------------------| 
D|---------------------------------------------------------------------------| 
A|---------------------------------------------------------------------------| 
E|---------------------------------------------------------------------------| 

e|----8-------------------------------------8-----------------------|          
B|-10---10-10-10-10-10-10-10-10-10-10-10-10---10-10-10-10-10-10-10--| 
G|------------------------------------------------------------------| 
D|------------------------------------------------------------------| 
A|------------------------------------------------------------------| 
E|------------------------------------------------------------------| 

e|----------------------------------------------8-5tr8---|      
B|-10-10-10-10-10-10-10-10-10-10-10-10-10-10-10----------| 
G|-------------------------------------------------------| 
D|-------------------------------------------------------| 
A|-------------------------------------------------------| 
E|-------------------------------------------------------| 
Tap to rate this tab
 
# A B C D E F G H I J K L M N O P Q R S T U V W X Y Z