Guitaretab - guitar tabs
Song name
# A B C D E F G H I J K L M N O P Q R S T U V W X Y Z

Deep Purple - Highway Star tab

Artist: Deep Purple
Song: Highway Star
Part: Solo
Tabbed by: Carl
Tuning: E Standard

This has a few mistakes, the tab creator I used was really hard-to-use, and this is the 
tab I have ever created.
You can contact me at snypes608@hotmail.com
I may make another tab for this in the near future, but I hope this helps you out.


(/) Slide Up  (\) Slide Down  (h) Hammer On  (p) Pull Off  (b) Bend (r) Release (v) Vibrato

E|------------------------------------------------12b13r12--12--10--------------|
B|----------13b15----------13b15r13---------------------------------10----------|
G|------10-------------10------------10v------10------------------------10------|
D|--/12------------/12--------------------/12-------------------------------12--|
A|------------------------------------------------------------------------------|
E|------------------------------------------------------------------------------|

E|-------------------|
B|-------------------|
G|--12--10v----------|
D|----------12v------|
A|-------------------|
E|-------------------|

E|------------------------------------------------12b13r12--12--10--------------|
B|----------13b15----------13b15r13--------------------------------10-----------|
G|------10-------------10------------10v------10----------------------10--------|
D|--/12------------/12--------------------/12----------------------------12-----|
A|------------------------------------------------------------------------------|
E|------------------------------------------------------------------------------|

E|-------------------|
B|-------------------|
G|--12--10v----------|
D|----------12v------|
A|-------------------|
E|-------------------|

E|---------------------------------------------------------------------|
B|--8b10--8b10v----8b10--8b10v----8b10r8--8--5-------------------------|
G|----------------------------------------------7--5-----7--5v---------|
D|----------------------------------------------------7---------7v-----|
A|---------------------------------------------------------------------|
E|---------------------------------------------------------------------|

E|--------------------------------------------------------|
B|--------------------------------------------------------|
G|--------5--------5--------------5--------5--------------|
D|--5--7-----7--5-----7--5--7--5-----7--5-----7--5--7--5--|
A|--------------------------------------------------------|
E|--------------------------------------------------------|

E|---------------------------------------|
B|--8b10--8b10--8b10--8b10--8b10--8b10v--|
G|---------------------------------------|
D|---------------------------------------|
A|---------------------------------------|
E|---------------------------------------|

E|--8b10r8--8--5--------8b10r8--8--5--------8b10r8--8--6--------8b10r8--8--6--------|
B|----------------6-------------------6-------------------8-------------------8-----|
G|-------------------7-------------------7-------------------7-------------------7--|
D|----------------------------------------------------------------------------------|
A|----------------------------------------------------------------------------------|
E|----------------------------------------------------------------------------------|

E|--10b12r10--10--8--------10b12r10--8--------5-----6-----7------8-----------------|
B|-------------------8------------------8-----8b10--9b11--10b12--11b13-------------|
G|----------------------9------------------9---------------------------------------|
D|---------------------------------------------------------------------------------|
A|---------------------------------------------------------------------------------|
E|---------------------------------------------------------------------------------|

E|--8b10r8--8--5--------8b10r8--8--5--------8b10--8b10r8--6--------8b10r8--6--------|
B|----------------6-------------------6----------------------8----------------8-----|
G|-------------------7-------------------7----------------------7----------------7--|
D|----------------------------------------------------------------------------------|
A|----------------------------------------------------------------------------------|
E|----------------------------------------------------------------------------------|

E|-10b12-10b12r10--10--8--------10b12r10--8--------5-----6-------7------8-----------|
B|------------------------8------------------8-----8b10--9b11----10b12--11b13-------|
G|---------------------------9------------------9-----------------------------------|
D|----------------------------------------------------------------------------------|
A|----------------------------------------------------------------------------------|
E|----------------------------------------------------------------------------------|

E|--5--6--8--5--6--8--5--6--8--5--6--8--5--6--8--5--6--8--5--6--8--5--6--8--|
B|--------------------------------------------------------------------------|
G|--------------------------------------------------------------------------|
D|--------------------------------------------------------------------------|
A|--------------------------------------------------------------------------|
E|--------------------------------------------------------------------------|
[ Tab from: http://www.guitaretab.com/d/deep-purple/175624.html ]
E|--6--8--10--6--8--10--6--8--10--6--8--10--6--8--10--6--8--10--6--8--10--6--8--10--|
B|----------------------------------------------------------------------------------|
G|----------------------------------------------------------------------------------|
D|----------------------------------------------------------------------------------|
A|----------------------------------------------------------------------------------|
E|----------------------------------------------------------------------------------|

E|--8--10--12--8--10--12--8--10--12--8--10--12--8--10--12--8--10--12--8--10--12--|
B|-------------------------------------------------------------------------------|
G|-------------------------------------------------------------------------------|
D|-------------------------------------------------------------------------------|
A|-------------------------------------------------------------------------------|
E|-------------------------------------------------------------------------------|

E|--8--10--12--|
B|-------------|
G|-------------|
D|-------------|
A|-------------|
E|-------------|

E|--17--0--0--15--0--0--14--0--0--13--0--0--12--0--0--11--0--0--10--0--0--9--0--0--|
B|---------------------------------------------------------------------------------|
G|---------------------------------------------------------------------------------|
D|---------------------------------------------------------------------------------|
A|---------------------------------------------------------------------------------|
E|---------------------------------------------------------------------------------|

E|--5--6--8--5--6--8--5--6--8--5--6--8--5--6--8--5--6--8--5--6--8--5--6--8--|
B|--------------------------------------------------------------------------|
G|--------------------------------------------------------------------------|
D|--------------------------------------------------------------------------|
A|--------------------------------------------------------------------------|
E|--------------------------------------------------------------------------|

E|--6--8--10--6--8--10--6--8--10--6--8--10--6--8--10--6--8--10--6--8--10--6--8--10--|
B|----------------------------------------------------------------------------------|
G|----------------------------------------------------------------------------------|
D|----------------------------------------------------------------------------------|
A|----------------------------------------------------------------------------------|
E|----------------------------------------------------------------------------------|

E|--8--10--12--8--10--12--8--10--12--8--10--12--8--10--12--8--10--12--8--10--12--|
B|-------------------------------------------------------------------------------|
G|-------------------------------------------------------------------------------|
D|-------------------------------------------------------------------------------|
A|-------------------------------------------------------------------------------|
E|-------------------------------------------------------------------------------|

E|--8--10--12--|
B|-------------|
G|-------------|
D|-------------|
A|-------------|
E|-------------|

E|--17--0--0--15--0--0--14--0--0--13--0--0--12--0--0--11--0--0--10--0--0--9--0--0--|
B|---------------------------------------------------------------------------------|
G|---------------------------------------------------------------------------------|
D|---------------------------------------------------------------------------------|
A|---------------------------------------------------------------------------------|
E|---------------------------------------------------------------------------------|

E|--8--0--0--7--0--0--6--0--0--5--0--0--4--0--0--3--0--0--2--0--0--1--0--0--|
B|--------------------------------------------------------------------------|
G|--------------------------------------------------------------------------|
D|--------------------------------------------------------------------------|
A|--------------------------------------------------------------------------|
E|--------------------------------------------------------------------------|

E|--1--0--0--2--0--0--3--0--0--4--0--0--5--0--0--6--0--0--7--0--0--8--0--0--|
B|--------------------------------------------------------------------------|
G|--------------------------------------------------------------------------|
D|--------------------------------------------------------------------------|
A|--------------------------------------------------------------------------|
E|--------------------------------------------------------------------------|

E|--------------------------------------------|
B|--8b10r8--8--7--5---------------------------|
G|-------------------8--7--5--7--5------------|
D|----------------------------------7--5--7v--|
A|--------------------------------------------|
E|--------------------------------------------|

E|--------------------------------------------|
B|--8b10r8--8--7--5---------------------------|
G|-------------------8--7--5--7--5------------|
D|----------------------------------7--5--7v--|
A|--------------------------------------------|
E|--------------------------------------------|

Use the whammy bar on the last note.

E|-----
B|-----
G|--7--
D|-----
A|-----
E|-----


Thanks! =)
Related for Highway Star tab
Advertisement will be closed in 10 seconds