Song name
# A B C D E F G H I J K L M N O P Q R S T U V W X Y Z

Deep Purple - Hey Cisco tab

Hey Cisco
(Gillan/Glover/Morse/Lord/Paice)
From "Purpendicular", 1996
This was taken from a Brazilian guitar magazine (they transcribed only the
intro).

+------------------+
| TAB explanation: |
|                  |
| h - hammer-on    |
| p - pull-off     |
+------------------+


     E                                     D           
E----0-----0-|---0-----0-|---0------0-|-------0-------|
B--5-----5---|-7-----7---|-9------9---|-10------12----|
G------9-----|-----9-----|-----11-----|---------------|
D------------|-----------|------------|----12------12-|
A------------|-----------|------------|---------------|
E------------|-----------|------------|---------------|



        E                                D
E----0-----0-|---0-----0-|---0------0-|-------0-------|
B--5-----5---|-7-----7---|-9------9---|-7-------------|
G------9-----|-----9-----|-----11-----|-----7---7-----|
D------------|-----------|------------|---0-----------|
A------------|-----------|------------|---------------|
E------------|-----------|------------|---------------|


->Play first 4 measures again.


        G             A            C          Bm
E--7---------|-7---------|-10----------|-10---------|
B------0-0---|-----------|-------8-8---|------7-7---|
G----------0-|-----0-0---|-----------0-|----------7-|
D----5-------|---7-----6-|----10-------|----9-------|
A------------|-----------|-------------|------------|
E------------|-----------|-------------|------------|
    -2x-         -2x-         -2x-          -2x-

Tap to rate this tab
 
# A B C D E F G H I J K L M N O P Q R S T U V W X Y Z