Song name
# A B C D E F G H I J K L M N O P Q R S T U V W X Y Z

Deep Purple - Lady Double Dealer tab

Help us improve GuitareTab! Take a short survey!
Lady Double Dealer
(Blackmore/Coverdale)
From "Stormbringer", 1974
E||-------------------------|------------------------|
B||-------------------------|------------------------|
G||-------------------------|------------------------|
D||-----7--5-----5-------5--|-------5--7-------5--7--|
A||--0--------7-------7-----|----7----------7--------|
E||-------------------------|------------------------|



-----------------------------|-----------------------|------------------------|
-----------------------------|-----------------------|------------------------|
-----------------------------|-----------------------|---------------------5--|
-----7--5-----5--------------|--------------7--5-----|--5-------5-------5-----|
--0--------7-------7--5------|--3--------0--------7--|-------7-------7--------|
-----------------------------|-----------------------|------------------------|



-------------------------|----------------------|------------------|
-------------------------|----------------------|------------------|
-------------------------|----------------------|------------------|
-------5--7-----7--5-----|--5-------------------|------------------|
----7--------0--------7--|-------7--5------3----|------------------|
-------------------------|----------------------|------------------|
Related for Lady Double Dealer tab