Song name
# A B C D E F G H I J K L M N O P Q R S T U V W X Y Z

Deep Purple - You Cant Do It Right tab

You Can't Do It Right (With The One You Love)
(Blackmore/Coverdale/Hughes)
From "Stormbringer", 1974
Intro 
E||----------------------|-----------------------|----------------------------|
B||----------------------|-----------------------|----------------------------|
G||----------------------|-----------------------|----------------------------|
D||----------------------|--5--------------------|----------------------------|
A||----------------5--7--|-------7-----5--7------|--------5----7----5/2-------|
E||------------5/7-------|-----------7-----------|--5-6-7----7----------5--3--|


--------------------||----7-7-7-7-7--7-7-7-7-7----|
--------------------||----8-8-8-8-8--8-8-8-8-8----|
-------------------*||----7-7-7-7-7--7-7-7-7-7----|
-------------------*||----------------------------|
--------------------||----7-7-7-7-7--7-7-7-7-7----|
--0-----------------||----------------------------|



Main Riff
|--------------------------------|---------------------------|
|--------------------------------|---------------------------|
|*-------------------------------|---------------------------|
|*-------------------------------|---------------------------|
|------7--5-----------------5-7--|-----7--5-------------7----|
|---0-------6-5-3-6-5-3-0-7------|--0-------6-5-3-5-3--------|


-------------------------------|-----------------------------||
-------------------------------|-----------------------------||
-------------------------------|----------------------------*||
-------------------------------|----------------------------*||
-----7--5-----------------5-7--|-----7--5--------------------||
--0-------6-5-3-6-5-3-0-7------|--0-------6-5-3-6--5--3--0---||




Rhythm
--7----7--x--x-x-7-7-x--7-x-|--7----7--x--x-x-7-7-x--7-x-|
--8----8--x--x-x-8-8-x--8-x-|--8----8--x--x-x-8-8-x--8-x-|
--7----7--x--x-x-7-7-x--7-x-|--7----7--x--x-x-7-7-x--7-x-|
----------------------------|----------------------------|
--7----7--x--x-x-7-7-x--7-x-|--7----7--x--x-x-7-7-x--7-x-|
----------------------------|----------------------------|


--7----7--x--x-x-7-7-x--7-x-|--7----7--x--x-x-3------||
--8----8--x--x-x-8-8-x--8-x-|--8----8--x--x-x-3------||
--7----7--x--x-x-7-7-x--7-x-|--7----7--x--x-x-3------||
----------------------------|-----------------2------||
--7----7--x--x-x-7-7-x--7-x-|--7----7--x--x-x-3------||
----------------------------|------------------------||
Tap to rate this tab
 
# A B C D E F G H I J K L M N O P Q R S T U V W X Y Z