Song name
# A B C D E F G H I J K L M N O P Q R S T U V W X Y Z

Deep Purple - Hey Joe tab

Hey Joe
(Roberts)
From "Shades of Deep Purple", 1968
********************
*                  *
*  h = hammer on   *
*  p = pull off    *
*  / = slide up    *
*  \ = slide down  *
*  x = mute        *
*                  *
********************


!!! This tablature may not to be totally correct, because it's only my interpretation
of this song and it was also very difficult to transcribe it !!!

Organ solo arranged for guitar:
E|---12h13p12----12-------7-8-10h12p10----10---------------|
B|------------15-----------------------13------------------|
G|-------------------9x-----------------------7x-----------|
D|-------------------9x-----------------------7x-----------|
A|-------------------7x-----------------------5x-----------|
E|---------------------------------------------------------|


E|---5-7-8h10p8----8----10-12-13-15-13-10-12h13p12----12---|
B|--------------12---------------------------------15------|
G|-------------------5x------------------------------------|
D|-------------------5x------------------------------------|
A|-------------------3x------------------------------------|
E|---------------------------------------------------------|

Guitar solo (1st version):
E|--------------------------------------------|
B|--------------------------------------------|
G|-----4-----4-5-7-5h7p5\4---4-5p4---4--------|
D|---2-----7---------------7-------7----------|
A|--------------------------------------------|
E|--------------------------------------------|


E|---------------------------------------------------------|
B|---/10-12-12-12-12-12-12-12-12-12-10h12p10-9-------------|
G|----------------------------------------------5-7-/9-9---|
D|---------------------------------------------------------|
A|---------------------------------------------------------|
E|---------------------------------------------------------|


     G   G      F F F F F/G F E
E|--------------------------------------|
B|---3x--3x-----1-1-1-1-1/3-1-0---------|
G|---4x--4x-----2-2-2-2-2/4-2-1---------|
D|---5x--5x-----3-3-3-3-3/5-3-2---------|
A|---5x--5x-----3-3-3-3-3/5-3-2---------|
E|---3x--3x-----1-1-1-1-1/3-1-0---------|

Keyboard solo: -------

Guitar solo (2nd version):
E|------------------------------------------|
B|------------------------------------------|
G|-----4------4x-5x-/7x-5x-5x-4-5-4---4-----|
D|---2-----7x-----------------------7-------|
A|------------------------------------------|
E|------------------------------------------|


E|---------7-8-7-7p5---5h7p5----------------------------------------|
B|---7h8h9-----------7-------5--------------------------------------|
G|-----------------------------4-4-4-4h5h7p5-/7-7-7-7-7-7-5-5p4-----|
D|------------------------------------------------------------------|
A|------------------------------------------------------------------|
E|------------------------------------------------------------------|

...and some some incomprehensible tones (I think they're not very important)

And the part with singing:

C       G           D
        Hey Joe

A                                 E
        Where you going with that gun in your hand

E|-----------------|
B|-----------------|
G|-----------------|
D|-------0---5-2---|
A|---0h2---2-------|
E|-----------------|

Guitar solo (3rd version):
E|-----------------------------------------|
B|-----------------------------------------|
G|-----4-----4-5-7-5h7p7\4---4h5p4---4-----|
D|---2-----7---------------7-------7-------|
A|-----------------------------------------|
E|-----------------------------------------|


E|---/5-7-8-8-8-8-8-8-8-8-8-8-8-8-8-7-5-----------|
B|----------------------------------------5-5-----|
G|--------------------------------------7---------|
D|------------------------------------------------|
A|------------------------------------------------|
E|------------------------------------------------|

     G   G      F F F F F/G F E
E|--------------------------------------|
B|---3x--3x-----1-1-1-1-1/3-1-0---------|
G|---4x--4x-----2-2-2-2-2/4-2-1---------|
D|---5x--5x-----3-3-3-3-3/5-3-2---------|
A|---5x--5x-----3-3-3-3-3/5-3-2---------|
E|---3x--3x-----1-1-1-1-1/3-1-0---------|
Tap to rate this tab
# A B C D E F G H I J K L M N O P Q R S T U V W X Y Z