Song name
# A B C D E F G H I J K L M N O P Q R S T U V W X Y Z

Deep Purple - Fire In The Basement tab

Fire In The Basement
(Blackmore/Glover/Turner/Lord/Paice)
From "Slaves And Masters", 1990
E||------|------------------|--6----5----6--5--3--------------|
B||------|---------3--6--3--|---------------------6--3--6--3--|
G||------|------0-----------|---------------------------------|
D||------|------------------|---------------------------------|
A||------|------------------|---------------------------------|
E||------|------------------|---------------------------------|



--3---------3---------------|--6----5----6--5--3----------|
-------6-----------3--6--3--|---------------------6--3----|
----------------------------|-----------------------------|
----------------------------|-----------------------------|
----------------------------|-----------------------------|
----------------------------|-----------------------------|



------------------------|----------||
------------------------|----------||
--10--------12----------|----------||
--10--------12----------|----------||
--8---------10----------|----------||
------------------------|----------||
Tap to rate this tab
# A B C D E F G H I J K L M N O P Q R S T U V W X Y Z