Guitaretab - guitar tabs
Song name
# A B C D E F G H I J K L M N O P Q R S T U V W X Y Z

Deep Purple - Burn tab

Deep Purple
Burn


Intro
||-----------------|-----------------|----------------|-----------------||
||o----------------|-----------------|----------------|----------------o||
||----3s2---5------|-3s2---5-(5)--3--|---3s2---5------|-3s2p0-----------||
||----3s2---5------|-3s2---5-(5)--3--|---3s2---5------|-3s2p0-3-(3)-----||
||o----------------|-----------------|----------------|-------3-(3)----o||
||--3-----3------3-|-----3-----------|-3-----3------3-|-----------------||

|------------------||-------------|
|------------------||o------------|
|-3s2p0------------||-------------|
|-3s2p0-3-(3)------||-----5-------|
|-------3-(3)------||o------------|
|-------------1-2--||--3----------|

VERSE (BASE1 G F G C) (BASE2 G F G Bb F C)
|-----------------|------------|-------------------|
|-----------------|------------|-------------------|
|-----------------|------------|-------------------|
|-(5)----(5)------|----3-------|-(3)----(3)--------|
|-----------------|------------|-------------------|
|------------3-2--|-1----------|------------1-2----|

|------------|------------|----------------|------------------|
|------------|------------|----------------|------------------|
|------------|------------|-------------3--|-(3)------(3)b5---|
|----5-------|-(5)--------|------5-(5)-----|------------------|
|------------|------------|-3--------------|------------------|
|-3----------|------------|----------------|------------------|

CHORUS (BASE Gm Eb C)
|----------------|------------|----------||-------------------|
|----------------|------------|----------||-------------------|
|----------------|------------|----------||-------------------|
|----------------|------------|----------||------5-(5)-3-3p0--|
|-1-----------3--|-(3)--------|----------||-------------------|
|------1-(1)-----|------------|----------||-3-----------------|

|----------------|---------------|----------|
|----------------|---------------|----------|
|----------------|---------------|-3--------|
|-5----(5)-3-5p3-|-1----5-(5)----|----------|
|----------------|---------------|----------|
|----------------|---------------|----------|

|----------------|-----------------||
|----------------|-----------------||
|-------------3--|-3b5----3b5------||
|------5-(5)-----|-----------------||
|-3--------------|-----------------||
|----------------|-----------------||

BRIDGE (BASE D Bb A Bb D Bb C)
|---------------|-------------|----------|-------------|
|---------------|-------------|----------|-------------|
|-/7----7-7-----|-(7)------5--|-3--------|-(3)---------|
|------------7--|-------------|----------|-------------|
|-/5------------|-------------|----------|-------------|
|---------------|-------------|----------|-------------|

|----------------|-----------------|--------------|--3s=5----(5)-----|
|--------------6-|-(6)---5-(5)-----|--------------|------------------|
|-5----7-(7)-----|---------------2-|-(2)---2-2----|-(2)--------------|
|--------------3-|-(3)---2-(2)-----|--------------|------------------|
|-3----5-(5)-----|---------------0-|-(0)----------|------------------|
|----------------|-----------------|--------------|------------------|

|-----------------|-------------|-----------------|-------------|
|-6--6--6-(6)--6--|-(6)------6--|-----------------|-------------|
|----3------------|--3----------|-/7-----------7--|-(7)---------|
|-----------------|-------------|-------7-(7)-----|-------------|
|-1---------------|-------------|-/5--------------|-------------|
|-----------------|-------------|-----------------|-------------|

|----------------|---------------|------------|------------||
|-------------3--|-(3)---------5-|-(5)--------|-(5)--------||
|-3----1-(1)-----|--3---------/5-|-(5)--------|-(5)--------||
|----------------|-------------5-|-(5)--------|-(5)--------||
|----------------|---------------|------------|------------||
|----------------|---------------|------------|------------||

SOLO:
|-------------------||-----------------|--------------|----------------------|
|-------------------||-----------------|--------------|----------------------|
|-3s2p0-------------||-3---------------|---3----------|----------------------|
|-3s2p0-3-(3)---3-5-||------5-(5)--3---|-----5p3-5----|-3h5-3-0-3-2-0-2-3p2--|
|-------3-(3)-------||---------------0-|--------------|----------------------|
|-------------3-----||-----------------|-3------------|----------------------|

|----------------|-----------------------|
|----------------|-----------------------|
|---------3------|---5b7===(7)-(7)---(7)-|
|-0-3-5-3---5----|-----------------------|
|----------------|-----------------------|
|----------------|-----------------------|

|------------------------|---------------------------|
|------------------------|---------------------------|
|-(7)-(7)r(5)---(5)--3-5-|-5h6p5p3---5p3---3-5p3---3-|
|------------------------|---------5-----5-------5---|
|------------------------|---------------------------|
|------------------------|---------------------------|

|-----------------------------|-------3--------------|------3----------3--|
|-----------------------------|-----3---6-6b8===(8)--|-(8)----3-6---------|
|-5p3---3-5p3---3-5p3---3-5-5-|-5b7------------------|------------5b7-----|
|-----5-------5-------5-------|----------------------|--------------------|
|-----------------------------|----------------------|--------------------|
|-----------------------------|----------------------|--------------------|

|-----------------------|-------------------|
|-3---------------------|-------------------|
|---6p5p3---5p3---3-5p3-|-(3)-(3)---(3)-----|
|---------5-----5-------|-----------------5s|
|-----------------------|-------------------|
|-----------------------|-------------------|

|----------------------------------------|
|----------------------------------------|
|----10-12p10----10-12p10----10-12p10----|
|-12----------12----------12----------12-|
|----------------------------------------|
|----------------------------------------|

|----------------------------------------|
|----------------------------------------|
|-10-12p10----10-12p10----10-12p10----10-|
|----------12----------12----------12----|
|----------------------------------------|
|----------------------------------------|

|-----------------------------|-----------------------------|
|-------11b11.5---------------|-----------------------------|
|-11-12----------12--10h12p10-|-10-12p10-(10)-(10)-(10)--0--|
|-----------------------------|-----------------------------|
|-----------------------------|-----------------------------|
|-----------------------------|-----------------------------|

|-----------------------------------------|
|-----------------------------------------|
|-12-15-0-0-10-12-0-0-12-15-0-0-10-12-0-0-|
|-----------------------------------------|
|-----------------------------------------|
|-----------------------------------------|

|-----------------------------------------|-----------------------------------------|
|-----------------------------------------|-----------------------------------------|
|-12-15-0-0-10-12-0-0-12-15-0-0-10-12-0-0-|-12-15-0-0-10-12-0-0-12-15-0-0-10-12-0-0-|
|-----------------------------------------|-----------------------------------------|
|-----------------------------------------|-----------------------------------------|
|-----------------------------------------|-----------------------------------------|

|----------------------------------------|
|----------------------------------------|
|-12-15-0-0-10-12-0-0-8-10-0-0-10-12-0-0-|
|----------------------------------------|
|----------------------------------------|
|----------------------------------------|

|----------------------------------------|--------------------------------|
|----------------------------------------|--------------------------------|
|-12-15-0-0-10-12-0-0-8-10-0-0-10-12-0-0-|-8-10-8-0-7-8-7-0-5-7-5-0-5-3---|
|----------------------------------------|--------------------------------|
|----------------------------------------|--------------------------------|
|----------------------------------------|--------------------------------|

|-------------------|-----------------|
|-------------------|-----------------|
|-5b7=====(7)-7-7-7-|-7r===(5)-5-5p3--|
|-------------------|-----------------|
|-------------------|-----------------|
|-------------------|-----------------|

|-----------------------|----------------------||
|-----------------------|----------------------||
|-2-3p2-----------------|----5-----5b5.5---5-5-||
|-------5-3-5p3s2p0-3-5-|-/7---7-5-------7-----||
|-----------------------|----------------------||
|-----------------------|----------------------||

INTERLUDE:
||--10-------10-------10----|
||o-11-11----11-11----11-11-|
||-----12-12----12-12----12-|
||--------12-------12-------|
||o-------------------------|
||--------------------------|

|-11-------11-------11----|--8--------8--------8----|
|-13-13----13-13----13-13-|-10-10----10-10----10-10-|
|----12-12----12-12----12-|----10-10----10-10----10-|
|-------13-------13-------|-------10-------10-------|
|-------------------------|-------------------------|
|-------------------------|-------------------------|

|-10-------10-------10----|-------------------------|-8------8------8---|
|-11-11----11-11----11-11-|-11-------11-------11----|-8-8----8-8----8-8-|
|----10-10----10-10----10-|----12-------12-------12-|---8--8---8--8---8-|
|-------12-------12-------|-------13-------13-------|-----10-----10-----|
|-------------------------|-------------------------|-------------------|
|-------------------------|-------------------------|-------------------|

|-------------------------|-------------------------||-----------------------|
|-10-------10-------10----|----10-----10-----------o||-10-----10-11----10-11-|
|----11-------11-------11-|--------11----11-----11--||----11-----------------|
|-------------------------|------------------12-----||-----------------------|
|-------------------------|------------------------o||-----------------------|
|-------------------------|-------------------------||-----------------------|

|-------------------------|-------------------------||-----------------------|
|-------------------------|------------------------o||-----------12-------12-|
|-11----------12-------11-|-13-----13-14------------||-11-----11-------------|
|----12-12-12----12-------|----12--------12---------||----12--------12-------|
|-------------------------|------------------------o||-----------------------|
|-------------------------|-------------------------||-----------------------|

|-----------------------|-----------------------|-----------------------|
|----10-----10----------|-10-----10-------10----|----10-----10----------|
|--------11----11----11-|----11-----11-------11-|--------11----11----11-|
|-----------------12----|-----------------------|-----------------12----|
|-----------------------|-----------------------|-----------------------|
|-----------------------|-----------------------|-----------------------|

|-----------------------|-----------------------|-----------------------|
|-----------------------|--------------------12-|-----------------------|
|-13-----13-14-------14-|-11-----11-12----------|-13-----13-14----------|
|----12--------12-------|----12--------12-------|----12-----------------|
|-----------------------|-----------------------|-----------------------|
|-----------------------|-----------------------|-----------------------|

|-10-------10-11-------11-|-10-------10-11-------11-|
|-11-11----11-13-13----13-|-11-11----11-13-13----13-|
|----12-12-------12-12----|----12-12-------12-12----|
|-------12----------13----|-------12----------13----|
|-------------------------|-------------------------|
|-------------------------|-------------------------|

|--------------------|-------------------||
|-10-x-x-11-x-x-12-x-|-x-13-x-x-14--15---||
|--------------------|-------------------||
|--------------------|-------------------||
|--------------------|-------------------||
|--------------------|-------------------||

OUTRO:
|----------------|----------------|
|----------------|----------------|
|---3s2---5------|-3s2---5-(5)----|
|---3s2---5------|-3s2---5-(5)----|
|----------------|----------------|
|-3-----3------3-|-----3----------|

|----------------|----------------|----------------|
|----------------|----------------|----------------|
|---3s2---5------|-3s2p0----------|---3s2---5------|
|---3s2---5------|-3s2p0-3-(3)----|---3s2---5------|
|----------------|-------3-(3)----|----------------|
|-3-----3------3-|----------------|-3-----3------3-|

|-----------------|----------------|----------------||
|-----------------|----------------|----------------||
|-3s2---5-(5)--3--|---3s2---5------|-3s2p0----------||
|-3s2---5-(5)--3--|---3s2---5------|-3s2p0-3-(3)----||
|-----------------|----------------|-------3-(3)----||
|-----3-----------|-3-----3------3-|----------------||

||-----------------|----------------|----------------|-----------------||
||o----------------|----------------|----------------|----------------o||
||----3s2---5------|-3s2---5-(5)----|---3s2---5------|-3s2p0-----------||
||----3s2---5------|-3s2---5-(5)----|---3s2---5------|-3s2p0-3-(3)-----||
||o----------------|----------------|-------3--------|-------3-(3)----o||
||--3-----3------3-|-----3----------|-3-----3------3-|-----------------||

|---------------|----------------|---------------|---------------|
|---------------|----------------|---------------|---------------|
|---------------|----------------|---------------|---------------|
|---------------|----------------|---------------|-5----4-(4)----|
|---------------|-3----1-(1)-----|-6----5-(5)----|---------------|
|-3----1-(1)----|----------------|---------------|---------------|

|---------------|----------------|------3---------3--------|
|---------------|----------------|-6b8----2-6---3----------|
|-3----2-(2)----|-5b7---5-(5)----|-3----------5-----6p5p3--|
|---------------|----------------|-------------------------|
|---------------|----------------|-------------------------|
|---------------|----------------|-------------------------|

|---------------------------------------:--------------------:------*|
|---------------------------------------:--------------------:------*|
|-5-3---3-5p3---5p3-5-5-3---5-3---------:--------------------:------*|
|-----5-------5-----------5-----5p3-5p3-:-5-3-----------5----:------*|
|---------------------------------------:-----5-3-1-4-5------:------*|
|---------------------------------------:--------------------:------*|
[ Tab from: http://www.guitaretab.com/d/deep-purple/24597.html ]
Related for Burn tab
Burn chords by Deep Purple