Song name
# A B C D E F G H I J K L M N O P Q R S T U V W X Y Z

Deep Purple - Same In L A tab

 Same in L.A.- Deep Purple [Off Come Taste The Band 35th Anniversary Edition, Out-take]

 Main Riff- Distortion Guitar
e|-------------------|-----------------|-------------------|-----------------|
B|-------------------|-----------------|-------------------|-----------------|
G|-------------------|-----------------|-------------------|-----------------|x2
D|-------------------|-----------5p4v--|-------------------|-----------5-7---|
A|-------7---5---4---|-------7---------|-------7---5---4---|-------7---------|
E|---0-0---0---0-----|---0-0---0-------|---0-0---0---0-----|---0-0---0-3-5---|

 Riff 2- Distortion Guitar
e|---5-5-5-5-x---|
B|---5-5-5-5-x---|
G|---5-5-5-5-x---|Repeat loads! 
D|---5-5-5-5-x---|
A|---5-5-5-5-x---|
E|---------------|

 Riff 3- Distortion Guitar
e|-------------------|-----------------|----------------------|
B|-------------------|-----------------|-------3--------------|
G|-------------------|-----------------|---2s4---2p0----------|
D|---5-5-5-5-2-------|---5-2-----------|---------------0tr2---|
A|---3-3-3-3-0-5-2---|---3-0-5-5-5-2---|----------------------|
E|-------------3-0---|-------3-3-3-0---|----------------------|

  Riff 4- Distortion Guitar
e|-----------|---------|
B|-----------|---------|
G|-----------|---------|Played during the organ solo.
D|---2---5---|---2-5---|
A|---0---3---|---0-3---|
E|-----------|---------|

 Basically the whole song above here, so just use the track for timing etc.
 
 2011 J O'Baoigheallain
Tap to rate this tab
 
# A B C D E F G H I J K L M N O P Q R S T U V W X Y Z