Song name
# A B C D E F G H I J K L M N O P Q R S T U V W X Y Z

Deep Purple - This Time Around tab

Owed To G- Deep Purple Mark IV
 
 Guitar I- Intro [Distorted Guitar]

|------------------|----------------------|
|------------------|----------------------|
|------------------|----------------------|Played throughout most of the song as
|-------4-------5--|-------4-----4s5p4----|the rhythm guitar part.
|-----2---2---4----|-----2---2---------4v-|
|---0-------0------|---0-------0----------|
 
 Guitar II- Lead Guitar Part I
|-----------------------------|
|-----------------------------|
|---9h11v---11b12-11-8v-9-----|Played over the 1st guitar part, 
|-------------------------9v--|use track for any further clarification needed.
|-----------------------------|
|-----------------------------|

 Guitar II- Lead Guitar Part II
|----------------|----------------------|
|----------------|----------------------|
|-------9--------|-------9-11-----------|As with the above.
|---/11---11-9v--|---/11------9v--5p4v--|
|----------------|----------------------|
|----------------|----------------------|


 Guitar II- Lead Guitar Part III
|---------------|---------------|----------------|
|---------------|---------------|----------------|
|-------3-0tr2--|-------3-0tr2--|----------------|Use a C 'Hendrix chord' for the rhythm here.
|-----2---------|-----2---------|---2-0----------|
|---3-----------|---3-----------|-------2-0------|
|---------------|---------------|-----------3-0--|
                  
 Guitar II- Lead Guitar Part IV
|--------------------|---14b15-14-11-12------|
|---15b17v-----------|------------------12v--|
|------------14b16v--|-----------------------|Played over the main riff, once again.
|--------------------|-----------------------|
|--------------------|-----------------------|
|--------------------|-----------------------|

 After this, do another run through of the riff, re-play Lead Guitar Parts II and III.
 Then solo in E Dorian, as I cba figuring out the solo, as per usual! 
 We then go into the Main Riff being played Palm Muted, and top that off with Riff II,
 followed by the figure beneath.

 Guitar II- Lead Guitar Part V
|---------------|---------------|----------------|----------------|---------------------|
|---------------|---------------|----------------|----------------|---------------------|
|-------3-0tr2--|-------3-0tr2--|----------------|----------------|---------------------|
|-----2---------|-----2---------|---2-0----------|---2-0----------|---2-0---------------|
|---3-----------|---3-----------|-------2-0------|-------2-0---1v-|-------2-0-----------|
|---------------|---------------|-----------3-0--|-----------3----|-----------3v---0lr--|

 To end, play a short outro solo.
 
 P.S. try rounding off your main solo with the lick below.

|---12------------------|
|------15-12------------|
|------------14-12------|
|------------------14v--|
|-----------------------|
|-----------------------|

 2011 J O'Baoigheallain
Tap to rate this tab
 
# A B C D E F G H I J K L M N O P Q R S T U V W X Y Z