Song name
# A B C D E F G H I J K L M N O P Q R S T U V W X Y Z

Deep Purple - Black Knight tab

e||------------------------------------------|
B||------------------------------------------|
G||------------------------------------------|
D||-----5-----------5---7-5-----------5------|
A||---7---7-5---5-7---7-----7-55-7------7----|
E||-----------7------------------------------|

           <---------------------->
In my opinion it sounds better this way.
It looks complicated but its the same with power chords.

e||------------------------------------------|
B||------------------------------------------|
G||-----5-----------5---7-5-----------5------|
D||---7-5-7-5---5-7-5-7-7-5-7-55-7----5-7----|
A||---7---7-5-7-5-7---7-----7-55-7------7----|
E||-----------7------------------------------|


Ta Da!
Tap to rate this tab
# A B C D E F G H I J K L M N O P Q R S T U V W X Y Z