Song name
# A B C D E F G H I J K L M N O P Q R S T U V W X Y Z

Deep Purple - Lazy tab

Here is the awesome song Lazy by Deep Purple it's my favourite song so i wanted to share 
the tabs for you :)

s=slide


---------------------------------------------------1--------------------//
---------------------------4s6----4s6-4-1-4--1---1---1--------------4s6-//
----1---3-1------1---3-1-----------------------4-------4-3-1------------//
-3----3-----3-1----3-----3-----------------------------------3-1-3------//1
------------------------------------------------------------------------//
------------------------------------------------------------------------//

------------------------------------------------------------------------//
------------------------------------------------------------------------//
------------------------------------------------------------------------//
---1---3-1-----1---3-1----------------------1---------------------------//2
-3---3-----2-3---3-----3--3-2---2-1---1-2-3---2-1---1-------------------//
------------------------------4-----4-------------4---------------------//

------------------------------------------------------------------------//
------------------------------------------------------------------------//
-------------------------------------------------------3-1--------3-1---//3
-----3-1---------3-1--------3-1----------3-1----------------------------//
--------------------------------------------------1-1--------1-1--------//
-1-1---------1-1--------1-1-----------1-1-------------------------------//

------------------------------------------------------------------------//
------------------------------------------------------------------------//
-------------------------5-3-------3-1----------------------------------//3
-----3-1-------3-1--------------------------3-1------3-1--------3-1-----//
---------------------3-3-------1-1--------------------------------------//
-1-1-------1-1--------------------------1-1------1-1--------1-1---------//

The third part continues but listen to the song it helps soo mutch :)
http://www.youtube.com/watch?v=YPM6ni4bQzc
Tap to rate this tab
 
# A B C D E F G H I J K L M N O P Q R S T U V W X Y Z