Song name
# A B C D E F G H I J K L M N O P Q R S T U V W X Y Z

Deep Purple - Smoke On The Water tab

----5--------------5-------------------5-------------------5---------|
----5----3----5----5----3----6----5----5----3----5----3----5---------|
---------3----5---------3----6----5---------3----5----3--------------| X6
---------------------------------------------------------------------|
---------------------------------------------------------------------|
---------------------------------------------------------------------|

---3----------3----------3----------3----------3-----------1---------|
------5----------5----------5----------5----------5-----------3------|
---------5----------5----------5----------5----------5-----------3---| X6
---------------------------------------------------------------------|
---------------------------------------------------------------------|
---------------------------------------------------------------------|
Tap to rate this tab
# A B C D E F G H I J K L M N O P Q R S T U V W X Y Z