Song name
# A B C D E F G H I J K L M N O P Q R S T U V W X Y Z

Deep Purple - Sometimes I Feel Like Screaming tab

Deep Purple

Sometimes I Feel Like A Screaming -intro



Intro arranged more suitable for the fingerstyle and basic chords




     Dm           Bb         C            Am             Bb
|-------------0--1-----------------------------------------------------|
|----------------------------------3-/5--1-----------------------------|
|---------2------------0-H2-0-----------------------------------0-H2-0-|
|-----0--------------0-----------2------------2---3-/5---3----0--------|
|------------------1-----------3------------0--------------1-----------|
|----------------------------------------------------------------------|
  
   C              G
|----------------------3_--|
|---------------------3_---|
|--------------------0_----|
|---2---3p--2--0----0_-----|
|-3----------------2_------|
|-----------------3_-------|






     Dm           Bb         C            Am             Bb
|-------------0--1-----------------------------------------------------|
|----------3-----------------------3-/5--1-----------------------------|
|-------2--------------0-H2-0-----------------------------------0-H2-0-|
|---0----------------0-----------2------------2---3-/5---3----0--------|
|------------------1-----------3------------0--------------1-----------|
|----------------------------------------------------------------------|

   C          G
|--------------------|
|-------1/3---3------|
|----0--------0------|
|--------------------|
|-3------------------|
|-------------3------|
Tap to rate this tab
# A B C D E F G H I J K L M N O P Q R S T U V W X Y Z