Song name
# A B C D E F G H I J K L M N O P Q R S T U V W X Y Z

Deep Purple - Mistreated tab

“Mistreated” by Deep Purple        Good Luck

Standard Tuning

e|-------------------------------------------------|       5:37
B|--------------------------------------10b--------|
G|-9b---9b-----9~--------------9—11~---------11~---|
D|-------------------------11----------------------|
A|-------------------------------------------------|
E|-------------------------------------------------|

e|------9h12—9h10p9------12p9------9h10p9-----12p9---------12b~--12b~-|
B|-12b---------------12--------12---------12--------12---9------------|
G|--------------------------------------------------------------------|
D|--------------------------------------------------------------------|
A|--------------------------------------------------------------------|
E|--------------------------------------------------------------------|

e|-12--9------9--10--9--12---10p9---12p10p9-----9----|      5:46
B|--------12--------------------------------12-------|
G|---------------------------------------------------|
D|---------------------------------------------------|
A|---------------------------------------------------|
E|---------------------------------------------------|

e|-10p9-----9-10p9----9-10p9----9h10—12p9—10h12-9h10--|
B|-------12--------12--------12-----------------------|
G|----------------------------------------------------|
D|----------------------------------------------------|
A|----------------------------------------------------|
E|----------------------------------------------------|

e|-12p9-10h12-9h10-12p9-10----12----12b---12b---12b--|
B|---------------------------------------------------|
G|---------------------------------------------------|
D|---------------------------------------------------|
A|---------------------------------------------------|
E|---------------------------------------------------|


e|-12--10--12--10--9--10--9--10--9-----|             5:54
B|-------------------------------------|
G|-------------------------------------|
D|-------------------------------------|
A|-------------------------------------|
E|-------------------------------------|


e|-10-12-10-12-10p9/7-9-10p9p7--------7------7-|
B|------------------------------10p9-----10----|
G|---------------------------------------------|
D|---------------------------------------------|
A|---------------------------------------------|
E|---------------------------------------------|

e|--------------------------------------------|        6:00
B|-10p9p7h9—10p9p7--6-7-6-7-6-7-6--7-------7~-|
G|--------------------------------------------|
D|--------------------------------------------|
A|--------------------------------------------|
E|--------------------------------------------|

e|-------------------------------------|
B|-------------------------------------|
G|-9/11--9--11—10h13---13br--11--------|
D|-------------------------------------|
A|-------------------------------------|
E|-------------------------------------|

e|------9--10-9--12-10—12p10p9-----9—10p9-------|         6:04
B|---10-------------------------12---------12p10|
G|-11-------------------------------------------|
D|----------------------------------------------|
A|----------------------------------------------|
E|----------------------------------------------|

e|-------------------------------------|
B|-12b---12br--10—---------------------|
G|-------------------11~---9-----11----|
D|-------------------------------------|
A|-------------------------------------|
E|-------------------------------------|

e|-------------------------9----10p9—12p10—12b—12b—12b~|
B|-10p9-----12p10p9—12p10----12------------------------|
G|------11---------------------------------------------|
D|-----------------------------------------------------|
A|-----------------------------------------------------|
E|-----------------------------------------------------|

e|-12br--------------9----------------------------|
B|------12br--10—12b----12-10p9-------------------|
G|------------------------------11p10---11~---11b-|
D|------------------------------------------------|
A|------------------------------------------------|
E|------------------------------------------------|

e|--------------------------------------------|       6:21
B|--------------------------------------------|
G|-x------------2---1---4~-------1---2---4~---|
D|----2----4----------------------------------|
A|--------------------------------------------|
E|--------------------------------------------|

e|-----------------------------------------------|
B|-----------------------------------------------|
G|----1---4p2--1------2p1-------1---2---4------2-|
D|-2---------------4--------4--------------------|
A|-----------------------------------------------|
E|-----------------------------------------------|

Next part is played with tremolo strumming (very quick strumming) *tip alternate strum
6:28
e|------------------------------------------------------------------|
B|------------------------------------------------------------------|
G|-6-6-6-6-6-6-6-6-6-6-6-6-6-6-6-6-6-6-6-6-6-6-6-6-6-6-6-6-6-6-6-6--|
D|------------------------------------------------------------------|
A|------------------------------------------------------------------|
E|------------------------------------------------------------------|


e|-------------------------------------|
B|-------------------------------------|
G|-7-7-7-7-7-7-7-7-7-7-7-7-7-7-7-7-----|
D|-------------------------------------|
A|-------------------------------------|
E|-------------------------------------|

e|-------------------------------------|
B|-------------------------------------|
G|-9-9-9-9-9-9-9-9-9-9-9-9-9-9-9-9-----|
D|-------------------------------------|
A|-------------------------------------|
E|-------------------------------------|

e|-------------------------------------------------|
B|-------------------------------------------------|
G|-11-11-11-11-11-11-11-11-11-11-11-11-11-11-11-11-|
D|-------------------------------------------------|
A|-------------------------------------------------|
E|-------------------------------------------------|

e|-------------------------------------------------|
B|-------------------------------------------------|
G|-11-11-11-11-11-11-11-11-11-11-11-11-11-11-11-11-|
D|-------------------------------------------------|
A|-------------------------------------------------|
E|-------------------------------------------------|

e|------------------------9--10-----9--|        6:40
B|--------------------10---------------|
G|-11~------------11-------------------|
D|-------------------------------------|
A|-------------------------------------|
E|-------------------------------------|

e|-12--10--9------------------9-----9-----9------|
B|------------12—12b—12b--------12b---12b---12br-|
G|-----------------------------------------------|
D|-----------------------------------------------|
A|-----------------------------------------------|
E|-----------------------------------------------|

e|-----------------------------------------|
B|-12b-12b-12b-12b-12b-12b-12b-12b-12b-12b-|
G|-----------------------------------------|
D|-----------------------------------------|
A|-----------------------------------------|
E|-----------------------------------------|

e|-9-----------------------------------|                6:48
B|------12b—--12b—--12br---------------|
G|-------------------------------------|
D|-------------------------------------|
A|-------------------------------------|
E|-------------------------------------|

e|-------9-----------------------------------------|
B|----10----12p10p9--------------------------------|
G|-11---------------11p10-9------------------------|
D|---------------------------11p10p9p7----9p7------|
A|--------------------------------------9----------|
E|-------------------------------------------------|

e|-------------------------------------|
B|-------------------------------------|
G|-------------------------------------|
D|-9p7------7----9p7-------------------|
A|-----9p7----9------9p7—9~------------|
E|-------------------------------------|

e|-------------------------------------|
B|-------------------------------------|
G|---------------------6--------6------|
D|------7-----7p6----7----9--7---------|
A|-7h9-----9-------9-------------------|
E|-------------------------------------|

e|-------------------------------------|
B|-------------------------------------|
G|-----------------6---7p6-------------|
D|---7p6---7p6-9p7---9-----9-7p6-------|
A|-9-----9-----------------------9-----|
E|-------------------------------------|

e|-------------------------------------|
B|-------------------------------------|
G|--------------------7---9p7----7-----|
D|-7p6-9p7p6---7p6--9---9-----9--------|
A|-----------9-------------------------|
E|-------------------------------------|

e|-------------------------------------|             7:00
B|-------------------------------------|
G|-9b-9b~---9b—9b----9b-9br—-9b---9~---|
D|-------------------------------------|
A|-------------------------------------|
E|-------------------------------------|

e|-----------------------------------------------|
B|-----------------------------------------------|
G|------9-11p9----9—11p9-----9—11p9------9—11p9--|
D|-9/11--------11---------11---------11----------|
A|-----------------------------------------------|
E|-----------------------------------------------|

e|-----------------------------------------------|
B|-----------------------------------------------|
G|-----9h11p9------9h11p9-----9-11p9---10b-------|
D|-11----------11----------11---------------11~--|
A|-----------------------------------------------|
E|-----------------------------------------------|

							7:05

e|----------------------------------------------------------------|
B|-------14-17p14----14-17p14---14-17p14---14-17p14---14-17p14----|
G|--x—16b---------16---------16---------16---------16-------------|
D|-x--------------------------------------------------------------|
A|----------------------------------------------------------------|
E|----------------------------------------------------------------|

e|----------------------------------------------------------------|
B|-------14-17p14----14-17p14---14-17p14---14-17p14---14-17p14----|
G|--x—16b---------16---------16---------16---------16-------------|
D|-x--------------------------------------------------------------|
A|----------------------------------------------------------------|
E|----------------------------------------------------------------|

e|-------------------------------------|
B|----14-17p14----14-17p14----14-17b---|
G|-16----------16----------16----------|
D|-------------------------------------|
A|-------------------------------------|
E|-------------------------------------|

e|-------------------------------------|
B|-17b-17br--14-----14----14-----------|
G|--------------16b----16-------16b----|
D|-------------------------------------|
A|-------------------------------------|
E|-------------------------------------|

e|-------------------------------------|              7:21
B|-----10------------------------------|
G|---------------------11~-------------|
D|-------------------------------------|
A|-------------------------------------|
E|-------------------------------------|


I suggest you listen to the song while learning it as it is a relatively difficult solo 
is played with plenty of breaks and off-cue notes.  The song is broken up to make it 
to learn.  Next to some parts is the timestamp for that part.

Legend:

b- bend
h- hammer
p- pull off
~- hold note
r- rake
br- bend then rake
Tap to rate this tab
# A B C D E F G H I J K L M N O P Q R S T U V W X Y Z