Song name
# A B C D E F G H I J K L M N O P Q R S T U V W X Y Z

Deep Purple - Highway Star tab

----------------------------------------------------------------------------
                         HIGHWAY STAR - Deep Purple
----------------------------------------------------------------------------

This is just some of the main bits from Highway Star by Deep Purple. Some Bass bits, 
Organ bits, I'm not too sure. Ritchie Blackmore uses the Rhythm Pickup on his Strat and if 
you want you can also finger-pick. Enjoy! :)
P.S. Where there are a lot of 3s on the Low E, I might be wrong, I can't really be 
bothered counting them yet but you get the picture. Also, they're Palm Muted!

Tabbed by: adsauzier
Email: andresauzier@yahoo.com.au

Tuning: Standard (EADGBe)

Bass Arangement                      (I just add this little riff)
e|-----------------------------------||---------------------------------------|
B|-----------------------------------||---------------------------------------|
G|-----------------------------------||---------------------------------------|
D|-----------------------------------||---------------------------------------|
A|-----------------------------------||---------------------------------------|
E|--3-3-3-3-3-3-3-3-3-3-3-3-3-3-3-3--||--0h2h3-3-3-3-3-3-3-3-3-3-3-3-3-3-3-3--|

Guitar/Organ Bit (Sometimes I do pull-offs for this bit)
e|---------------------------||
B|---------------------------||
G|--3--0-3--0-3--0-3--0-3-5--||
D|--3--0-3--0-3--0-3--0-3-5--||
A|---------------------------||
E|---------------------------||


(This is where the Vocals come in)

            Nobody Gonna Take My Car, It's Gonna Reach The Speed Of...
e|-----------------------------------------------------------|
B|-----------------------------------------------------------|
G|--5---3----------------------------------------------------|
D|--5---3----------------------------------------------------|
A|-----------------------------------------------------------|
E|----------3-3-3-3-3-3-3-3-3-3-3-3-3-3-3-3-3-3-3-3-3-3-3-3--|

    Sou-ou-nd
e||---------------------------------------------------------||
B||---------------------------------------------------------||
G||--3---5--3-----------------------------------------------||
D||--3---5--3-----------------------------------------------||
A||---------------------------------------------------------||
E||------------3-3-3-3-3-3-3-3-3-3-3-3-3-3-3-3-3-3-3-3-3-3--||

At the end there's just more 3s so just keep on playing the 3s
e|--------------------------------------------------------------------------|
B|--------------------------------------------------------------------------|
G|--3---5--3----------------------------------------------------------------|
D|--3---5--3----------------------------------------------------------------|
A|--------------------------------------------------------------------------|
E|------------5-5-5-5-5-5-5-5-5-5-5-5-5-5-5-5-5-5-5-5-5-5-5-5-5-5-4-3-3-3-3-|


************************************

| /   Slide Up
| \   Slide Down
| h   Hammer-On
| p   Pull-Off
| ~   Vibrato
| +   Harmonic
| X   Mute Note
| b   Bend
| pb  Pre-Bend
| br  Bend Release
| pbr Pre-Bend Release
| brb Bend Release Bend
| <   Volume Swell

************************************
Tap to rate this tab
# A B C D E F G H I J K L M N O P Q R S T U V W X Y Z