Song name
# A B C D E F G H I J K L M N O P Q R S T U V W X Y Z

Deep Purple - Black Night Live tab

Help us improve GuitareTab! Take a short survey!
INTRO
e-----------------------------------------------------
b-----------------------------------------------------
g----------------------------------------^------------
d----5-------------5---7-5---------------5------------
a-/7---7-5~~--5-7~~--7-----7--5-7/------x--7~~/-------
e-----------7-----------------------------------------x2
VERSE

e----------------------------------------------
b----------------------------------------------
g----------------------------------------------
d----------------------------------------------
a-5-7----------x-5-7----------x-5-7------------
e-----0-0--0-0-------0-0--0-0-------0-0--0-0---x6
CHORUS RIFF

e---------------------------------5-5-------3------
b---------------------------------5-5-------3------
g---------------------------------x-x----0--0------
d---------------------------------7-7----5---------
a-/7-5---5~~---5-7/9-7-5-7-5------7-7----5---------
e------7-----7---------------7-5-------------------
  fill 1
e-------------------------------5-5-------3-x----
b-------------------------------5-5-------3-x----
g-12----12-14-12-11-9-7--^------x-x----0--0-x-4--
d-12-14-12-14-12-11-9-7--5------7-7----5----x-4--
a----14--------------------7~~--7-7----5----x-2--
e-------------------------------------------x----main riff
 MAIN RIFF AFTER 2ND VERSE
do this at the end of the first performance of the riff for the second time
(~~~~)= very wide vibrato without wammy bar                   
e-----------------------------
b--^--------------------------
g-14r-14p12-----12(~~~~)------
d----------14-12--------------
a-----------------------------
e-----------------------------

Some pieces of this are from the video and the CD
(Come Hell Or High Water) CD or on video or DVD
Buy the DVD or video it's exellent
                          tabbed by Ben (Blackmore)
Related for Black Night Live tab