Song name
# A B C D E F G H I J K L M N O P Q R S T U V W X Y Z

Deep Purple - No No No tab

-------------------------------------------------------------------------------
Deep Purple-No No No
(Blackmore/Gillan/Glover/Lord/Paice)
Album: Fireball (1971)
------------------------------------------------------------------------------

Intro:                                    .25
e|-----------------------------------------------------------|
B|-----------------------------------------------------------|
G|----------------2------------------5b----------------------|
D|---x-----5--3h4---0--------------x-----7p5---5-------------|
A|-----5h7------------3-0-----5h7------------7---------------|
E|-5----------------------3----------------------------------|

e|-----------------------------------------------------------|
B|-----------------------------------------------------------|
G|----------------2------------------------------------------|
D|---x-----5--3h4---0----------------------------------------|
A|-----5h7------------3-0-----5tr7---------------------------|
E|-5----------------------3----------------------------------|

Every verse follow this pattern:
D (4 bars)
Then:
e|------------------------------------|
B|------------------------------------|
G|-----------------2------------------|Play 2x
D|----x-----5--3h4---0----------------|
A|------5h7------------3-0------------|
E|--5----------------------3----------|

D (4 bars)
Then:
e|------------------------------------|
B|------------------------------------|
G|-----------------2------------------|
D|----x-----5--3h4---0----------------|
A|------5h7------------3-0------------|
E|--5----------------------3----------|

E (1 bar)
D (1 bar)
A
Then, after every verse there is a special riff (during the A chord)
 
After first verse:                   
                                  P.M .25    P.M-    P.M       .25
e|--------------------------------------------------------------------------|
B|--------------------------------------------------------------------------|
G|------------------------------------5br----------------------5br----------|
D|--x-7-7-x-7-x-7-7p5---x-7-7-7-5-------------7-5--7-----5-7-x-------7-5-7--|
A|--------------------7------------7------------------7---------------------|
E|--------------------------------------------------------------------------|

After verse 2:
e|-------------------------------5-------------------------------------------|
B|--------------------------8b10---8-5---------------------------------------|
G|----5-7-7b9-7b9r7-5----5-------------7-5---7-5-----------------------------|
D|--7------------------7-------------------7-----7-5---7-5-------------------|
A|---------------------------------------------------7-----7-6-5-------------|
E|---------------------------------------------------------------8-5---------|

Solo 1                                                            w/bar
e|---------------------------------------------------------------------------|
B|---------------------------------------------------------------------------|
G|---------------------------------------------------------------------------|
D|-7/10--9/10-9/10-9-10-9-7-5-7~-9/10-9/10-9/10-14-12-10-9-10-9-7-5\--5\/----|
A|---------------------------------------------------------------------------|
E|---------------------------------------------------------------------------|

e|---------------------------------------------------------------------------|
B|---------------------------------------------------------------------------|
G|---/14-12/14-12/14-17-16-14-12-14-12-11-12-11-9-7-/9----12\----------------|
D|---------------------------------------------------------------------------|
A|---------------------------------------------------------------------------|
E|---------------------------------------------------------------------------|

Solo 2
        .25
e|--------------------------------------5---------5--------------------------|
B|----------------------------8b10-8b10---8-5---5---8-5----------------------|
G|------5b----7b9r7-5---5---------------------7---------7p5----7-------------|
D|---7----------------7-------------------------------------7----------------|
A|---------------------------------------------------------------------------|
E|---------------------------------------------------------------------------|

e|-----------------------------------------|
B|----------------------5------------------|
G|----5-7-7b9r5---5---x---5-7-5---5-5------|
D|--7-----------7---------------7----------|
A|-----------------------------------------|
E|-----------------------------------------|


e|-----------------8-8b9r8-5--8b9r8-5-8b9-8b9-8b9r8-5-7---5------/14---------|
B|-----5-------5-8-------------------------------------------7---------------|
G|---5---5-7-7---------------------------------------------------------------|
D|-7-------------------------------------------------------------------------|
A|---------------------------------------------------------------------------|
E|---------------------------------------------------------------------------|


e|--12-12-10-8-9-10-8-9-5---------5-/10------------|
B|------------------------5-8-7-8------------------|
G|-------------------------------------------------|
D|-------------------------------------------------|
A|-------------------------------------------------|
E|-------------------------------------------------|

After verse 3:
   P.M
e|-------------------------------------------------|
B|-------------------------------------------------|
G|--------------------9-9-------------9------------|
D|-------7-7---7-9b11-----9-9b11r9b11---9b11-------|
A|--7--9-----9-------------------------------------|
E|-------------------------------------------------|

After verse 4:
e|--------------------------------------------------|
B|--------------------------------------------------|
G|----5--9-5-7-5-7b9-7b9-7b9-7b9--------------------|
D|--7-----------------------------------------------|
A|--------------------------------------------------|
E|--------------------------------------------------|

Then comes the organ solo

Organ plays this at the end of solo:
e|---------------------------------------------------------------------------|
B|---------------------------------------------------------------------------|
G|---------------------------------------------------------------------------|
D|------------------------------------------------------5------7---5-7-------|
A|--------------------------3-----------3-----5---3-5-7---7-5----7-----------|
E|-0-3-5-0-3-5--0-3-5-0-3-5---5---0-3-5---5-3---5----------------------------|

e|---------------------5---------------------|
B|-----------------5-8---5-------------------|
G|---5-----7---5-7---------7-5-7-------------|
D|-7---7-5---7-------------------------------|
A|-------------------------------------------|
E|-------------------------------------------|

After verse 5:
e|-------------------------------------------|
B|--------------5b7r5b7-5b7r5---5------------|
G|--------4-5-7---------------7--------------|
D|--5-7-7------------------------------------|
A|-------------------------------------------|
E|-------------------------------------------|

After the last verse:
    .25
e|-----------5---5-5-------------------7-10---7-10---7-10-9-8-10-9-8-10-9-12--|
B|-------5-5---8------5--8-7-8-10----8------8------8--------------------------|
G|---5b----------------------------9------------------------------------------|
D|-7--------------------------------------------------------------------------|
A|----------------------------------------------------------------------------|
E|----------------------------------------------------------------------------|

e|-----------------------------||
B|-----------------------------||
G|---------------2-------------||
D|--------5--3h4---0-----------||
A|----5h7------------3-0-------||
E|-----------------------------||

Tap to rate this tab
 
# A B C D E F G H I J K L M N O P Q R S T U V W X Y Z