Song name
# A B C D E F G H I J K L M N O P Q R S T U V W X Y Z

Deep Purple - Space Truckin tab

-------------------------------------------------------------------------------
Deep Purple-Space Truckin
Machine Head (1972)
-------------------------------------------------------------------------------

Intro riff:
e|-----------------------------|
B|-----------------------------|
G|-------7-5-----5-7-----------| 4x
D|-5-7---7-5--7--5-7-5-7-------|
A|-5-7---5-3--7--3-5-5-7-------|
E|-3-5--------5------3-5-------|

Verses 1&2
e|---------------------------------------------------------------------------|
B|---------------------------------------------------------------------------|
G|---------------------------------------------------------------------------|
D|-----------------5-7-7-9-------------------------5-7-7-9-------------------|
A|-7-9-7-9-7-9-7-9-3-3-5-5-7-9-7-9-7-9-7-9-7-9-7-9-3-3-3-3-7-9-7-9-----------|
E|-5-5-5-5-5-5-5-5---------5-5-5-5-5-5-5-5-5-5-5-5---------5-5-5-5-----------|

e|---------------------------------------------|
B|---------------------------------------------|
G|--------------------------------9-------7----|
D|---7-9-7-9---------7-9-7-9----9---9---9------|
A|---5-5-5-5-7-9-7-9-5-5-5-5--7-------7--------|
E|-----------5-5-5-5---------------------------|

Chorus
e|---------------------------------------------------------------------------|
B|---------------------------------------------------------------------------|
G|---------------------------------------------------------------------------|
D|---2-1-0---------2-1-0---------2-1-0---------2-1-0-------------------------|
A|-0-------3-2-1-0-------3-2-1-0-------3-2-1-0-------3-2-0---2-1-0-----------|
E|---------------------------------------------------------0-------3-2-1-----|

e|-----------------------------------------|
B|-----------------------------------------|
G|-----------------------------------------|
D|-----------------------------------------|
A|---2-1-0---------2-1-0-------------------|
E|-0-------3-2-1-0-------3-2-1-0-1-2-3-----|

Verse 3(organ plays the intro riff)
e|-----------------------------------------|
B|-----------------5-----------------5-----|
G|-----------------5-----------------5-----|
D|-----------------5-----------------5-----|
A|-x-x-x-x-x-x-x-x---x-x-x-x-x-x-x-x-------|
E|-----------------------------------------|

(2:13) C5 D5 E5
Chorus

Solo .25       .25                                    .25
e|-----------------------------5---------------------------------------------|
B|-------------------8b10-8b10---8-5-----------------------------------------|
G|----5b--------5b-------------------8-7-5---7-5-------5b--------------------|
D|--7----7--5-7----------------------------7-----7-5-7----7------------------|
A|---------------------------------------------------------------------------|
E|---------------------------------------------------------------------------|

                                        .25  .25
e|-----5-----5-----5-----5-----5--------------------------------------------------|
B|-----5-3h5---3h5---3h5---3h5---8-7-5--------------8b10-8b10-8-5-----------------|
G|-------------------------------------7-5b---5b------------------8-7p5---7-5b----|
D|------------------------------------------7----7----------------------7------7--|
A|---0----------------------------------------------------------------------------|
E|--------------------------------------------------------------------------------|

Drum solo

e|-----------------------------------------------------------|
B|-----------------------------------------------------------|
G|-4-5---0-1-2-3-4-5-6-7-8-9-10-11-12-13-14-15-16-17-18------|
D|-2-3-4-----------------------------------------------------|
A|-----------------------------------------------------------|
E|-----------------------------------------------------------|

Chorus

Fade out


|
Tap to rate this tab
 
# A B C D E F G H I J K L M N O P Q R S T U V W X Y Z