Guitaretab - guitar tabs
Song name
# A B C D E F G H I J K L M N O P Q R S T U V W X Y Z

Deep Purple - Burn tab

Artist: Deep Purple

Song: Burn

Tabbed by garwoc




E||------------------------|-----------------------|------------------------|
B||------------------------|-----------------------|------------------------|
G||-----3/-2-----5---------|--3/-2-----5------3----|-----3/-2-----5~--------|
D||-----3/-2-----5---------|--3/-2-----5------3----|-----3/-2-----5~--------|
A||------------------------|-----------------------|------------------------|
E||--3--------3---------3--|--------3--------------|--3--------3---------3--|



----------------------|------------------------|-----------------------|
----------------------|------------------------|-----------------------|
--3/-2h-0-------------|-----3/-2-----5---------|--3/-2-----5------3----|
--3/-2h-0--3----------|-----3/-2-----5---------|--3/-2-----5------3----|
-----------3----------|------------------------|-----------------------|
----------------------|--3--------3---------3--|--------3--------------|



------------------------|----------------------|------------------------|
------------------------|----------------------|------------------------|
-----3/-2-----5~--------|--3/-2h-0-------------|-----3/-2-----5---------|
-----3/-2-----5~--------|--3/-2h-0--3----------|-----3/-2-----5---------|
------------------------|-----------3----------|------------------------|
--3--------3---------3--|----------------------|--3--------3---------3--|



-----------------------|------------------------|----------------------|
-----------------------|------------------------|----------------------|
--3/-2-----5------3----|-----3/-2-----5~--------|--3/-2h-0-------------|
--3/-2-----5------3----|-----3/-2-----5~--------|--3/-2h-0--3----------|
-----------------------|------------------------|-----------3----------|
--------3--------------|--3--------3---------3--|----------------------|



------------------------|-----------------------|------------------------|
------------------------|-----------------------|------------------------|
-----3/-2-----5---------|--3/-2-----5------3----|-----3/-2-----5~--------|
-----3/-2-----5---------|--3/-2-----5------3----|-----3/-2-----5~--------|
------------------------|-----------------------|------------------------|
--3--------3---------3--|--------3--------------|--3--------3---------3--|



------------------------|--------------------|--------------------|
------------------------|--------------------|--------------------|
--3/-2h-0---------------|--------------------|--------------------|
--3/-2h-0--3------------|-------5~-----------|--------------------|
-----------3------------|--------------------|--------------------|
----------------1--2----|--3-----------------|------------3--2----|



--------------------|--------------------|--------------------|
--------------------|--------------------|--------------------|
--------------------|--------------------|--------------------|
-------3~-----------|--------------------|-------5------------|
--------------------|--------------------|--------------------|
--1-----------------|------------1--2----|--3-----------------|



------------------|---------------------|------------------|
------------------|---------------------|------------------|
------------------|----------------3b---|------------------|
------------------|---------5-----------|------------------|
------------------|--3------------------|------------------|
------------------|---------------------|------------------|



------------------------|-----------------------|------------------------|
------------------------|-----------------------|------------------------|
-----3/-2-----5---------|--3/-2-----5------3----|-----3/-2-----5~--------|
-----3/-2-----5---------|--3/-2-----5------3----|-----3/-2-----5~--------|
------------------------|-----------------------|------------------------|
--3--------3---------3--|--------3--------------|--3--------3---------3--|



------------------------|--------------------|--------------------|
------------------------|--------------------|--------------------|
--3/-2h-0---------------|--------------------|--------------------|
--3/-2h-0--3------------|-------5~-----------|--------------------|
-----------3------------|--------------------|--------------------|
----------------1--2----|--3-----------------|------------3--2----|



--------------------|--------------------|--------------------|
--------------------|--------------------|--------------------|
--------------------|--------------------|--------------------|
-------3~-----------|--------------------|-------5------------|
--------------------|--------------------|--------------------|
--1-----------------|------------1--2----|--3-----------------|



------------------|---------------------|------------------|------------------|
------------------|---------------------|------------------|------------------|
------------------|---------------------|------------------|------------------|
------------------|---------------------|------------------|------------------|
------------------|--1-------------3~---|------------------|------------------|
------------------|---------1-----------|------------------|------------------|



-----------------------|----------------------|--------------------|
-----------------------|----------------------|--------------------|
-----------------------|----------------------|--------------------|
---------5----3--3h-0--|--5~---------3--5h-3--|--1------5----------|
-----------------------|----------------------|--------------------|
--3--------------------|----------------------|--------------------|



-------------------|---------------------|--------------------|
-------------------|---------------------|--------------------|
--3~---------------|----------------3----|--3b-------3b-------|
-------------------|---------5-----------|--------------------|
-------------------|--3------------------|--------------------|
-------------------|---------------------|--------------------|



------------------------|-----------------------|------------------------|
------------------------|-----------------------|------------------------|
-----3/-2-----5---------|--3/-2-----5------3----|-----3/-2-----5~--------|
-----3/-2-----5---------|--3/-2-----5------3----|-----3/-2-----5~--------|
------------------------|-----------------------|------------------------|
--3--------3---------3--|--------3--------------|--3--------3---------3--|



----------------------|------------------------|-----------------------|
----------------------|------------------------|-----------------------|
--3/-2h-0-------------|-----3/-2-----5---------|--3/-2-----5------3----|
--3/-2h-0--3----------|-----3/-2-----5---------|--3/-2-----5------3----|
-----------3----------|------------------------|-----------------------|
----------------------|--3--------3---------3--|--------3--------------|



------------------------|------------------------|--------------------|
------------------------|------------------------|--------------------|
-----3/-2-----5~--------|--3/-2h-0---------------|--------------------|
-----3/-2-----5~--------|--3/-2h-0--3------------|-------5~-----------|
------------------------|-----------3------------|--------------------|
--3--------3---------3--|----------------1--2----|--3-----------------|



--------------------|--------------------|--------------------|
--------------------|--------------------|--------------------|
--------------------|--------------------|--------------------|
--------------------|-------3~-----------|--------------------|
--------------------|--------------------|--------------------|
------------3--2----|--1-----------------|------------1--2----|



--------------------|------------------|---------------------|
--------------------|------------------|---------------------|
--------------------|------------------|----------------3b---|
-------5------------|------------------|---------5-----------|
--------------------|------------------|--3------------------|
--3-----------------|------------------|---------------------|



------------------|------------------------|-----------------------|
------------------|------------------------|-----------------------|
------------------|-----3/-2-----5---------|--3/-2-----5------3----|
------------------|-----3/-2-----5---------|--3/-2-----5------3----|
------------------|------------------------|-----------------------|
------------------|--3--------3---------3--|--------3--------------|



------------------------|------------------------|--------------------|
------------------------|------------------------|--------------------|
-----3/-2-----5~--------|--3/-2h-0---------------|--------------------|
-----3/-2-----5~--------|--3/-2h-0--3------------|-------5~-----------|
------------------------|-----------3------------|--------------------|
--3--------3---------3--|----------------1--2----|--3-----------------|



--------------------|--------------------|--------------------|
--------------------|--------------------|--------------------|
--------------------|--------------------|--------------------|
--------------------|-------3~-----------|--------------------|
--------------------|--------------------|--------------------|
------------3--2----|--1-----------------|------------1--2----|



--------------------|------------------|---------------------|
--------------------|------------------|---------------------|
--------------------|------------------|---------------------|
-------5------------|------------------|---------------------|
--------------------|------------------|--1-------------3~---|
--3-----------------|------------------|---------1-----------|



------------------|------------------|-----------------------|
------------------|------------------|-----------------------|
------------------|------------------|-----------------------|
------------------|------------------|---------5----3--3h-0--|
------------------|------------------|-----------------------|
------------------|------------------|--3--------------------|


[ Tab from: http://www.guitaretab.com/d/deep-purple/4935.html ]
----------------------|--------------------|-------------------|
----------------------|--------------------|-------------------|
----------------------|--------------------|--3~---------------|
--5~---------3--5h-3--|--1------5----------|-------------------|
----------------------|--------------------|-------------------|
----------------------|--------------------|-------------------|



---------------------|--------------------|------------------------|
---------------------|--------------------|------------------------|
----------------3----|--3b-------3--------|-----3/-2-----5---------|
---------5-----------|--------------------|-----3/-2-----5---------|
--3------------------|--------------------|------------------------|
---------------------|--------------------|--3--------3---------3--|



-----------------------|------------------------|----------------------|
-----------------------|------------------------|----------------------|
--3/-2-----5------3----|-----3/-2-----5~--------|--3/-2h-0-------------|
--3/-2-----5------3----|-----3/-2-----5~--------|--3/-2h-0--3----------|
-----------------------|------------------------|-----------3----------|
--------3--------------|--3--------3---------3--|----------------------|



------------------------|-----------------------|------------------------|
------------------------|-----------------------|------------------------|
-----3/-2-----5---------|--3/-2-----5------3----|-----3/-2-----5~--------|
-----3/-2-----5---------|--3/-2-----5------3----|-----3/-2-----5~--------|
------------------------|-----------------------|------------------------|
--3--------3---------3--|--------3--------------|--3--------3---------3--|



----------------------|-----------------------|-------------------|
----------------------|-----------------------|-------------------|
--3/-2h-0-------------|--6/7-----7--7~--------|--------------5----|
--3/-2h-0--3----------|------------------7----|-------------------|
-----------3----------|--4/5------------------|-------------------|
----------------------|-----------------------|-------------------|



-------------------|------------------|---------------------|
-------------------|------------------|------------------6--|
--3~---------------|------------------|--5------7-----------|
-------------------|------------------|------------------3--|
-------------------|------------------|--3------5-----------|
-------------------|------------------|---------------------|



--------------------|--------------------|--3/-5~-------------|
--------5-----------|--------------------|--------------------|
-----------------2--|--------2--2~-------|--------------------|
--------2-----------|--------------------|--------------------|
-----------------0--|--------------------|--------------------|
--------------------|--------------------|--------------------|



----------------------|--------------------|---------------------|
--6----6--6~-----6----|---------------6~---|---------------------|
-------3--------------|--3~----------------|--7~------------7~---|
----------------------|--------------------|---------7~----------|
--1-------------------|--------------------|--5~-----------------|
----------------------|--------------------|---------------------|



------------------|---------------------|--------------------|
------------------|----------------3~---|-----------------5~-|
------------------|--3~-----1~----------|--3--------------5~-|
------------------|---------------------|-----------------5~-|
------------------|---------------------|--------------------|
------------------|---------------------|--------------------|



------------------|------------------|------------------------|
------------------|------------------|------------------------|
------------------|------------------|-----3/-2-----5---------|
------------------|------------------|-----3/-2-----5---------|
------------------|------------------|------------------------|
------------------|------------------|--3--------3---------3--|



-----------------------|------------------------|----------------------|
-----------------------|------------------------|----------------------|
--3/-2-----5------3----|-----3/-2-----5~--------|--3/-2h-0-------------|
--3/-2-----5------3----|-----3/-2-----5~--------|--3/-2h-0--3----------|
-----------------------|------------------------|-----------3----------|
--------3--------------|--3--------3---------3--|----------------------|



------------------------|-----------------------|------------------------|
------------------------|-----------------------|------------------------|
-----3/-2-----5---------|--3/-2-----5------3----|-----3/-2-----5~--------|
-----3/-2-----5---------|--3/-2-----5------3----|-----3/-2-----5~--------|
------------------------|-----------------------|------------------------|
--3--------3---------3--|--------3--------------|--3--------3---------3--|



-------------------------|----------------------|-----------------------|
-------------------------|----------------------|-----------------------|
--3/-2h-0----------------|--3-------------------|-----3-----------------|
--3/-2h-0--3-------3--5--|---------5~-----3-----|--------5h-3--5~-------|
-----------3-------------|-------------------0--|-----------------------|
----------------3--------|----------------------|--3--------------------|



----------------------------|------------------------|-------------------|
----------------------------|------------------------|-------------------|
----------------------------|--------------3---------|----5r-------------|
--3h5-3--0--3--2--0--2--3h2-|--0--3--5--3-----5~-----|-------------------|
----------------------------|------------------------|-------------------|
----------------------------|------------------------|-------------------|



---------------------|-------------------------------|
---------------------|-------------------------------|
----------5----3--5--|--5h6h5h3----5h3----3--5h3---3-|
---------------------|----------5------5---------5---|
---------------------|-------------------------------|
---------------------|-------------------------------|



--------------------------------|--------3--------------|
--------------------------------|-----3-----6--6b-------|
--5h3---3-5h3---3-5h3---3-5--5--|--5b-------------------|
------5-------5-------5---------|-----------------------|
--------------------------------|-----------------------|
--------------------------------|-----------------------|



------3-------------3--|-----------------------------|-------------------|
---------3--6----------|--3--------------------------|-------------------|
---------------5b------|-----6h5h3-----5h-3---3--5h3-|-------------------|
-----------------------|------------5-------5--------|----------------5/-|
-----------------------|-----------------------------|-------------------|
-----------------------|-----------------------------|-------------------|



--------------------------------------------|
--------------------------------------------|
------10--12h10-----10-12h10----10-12h10----|
--12------------12-----------12----------12-|
--------------------------------------------|
--------------------------------------------|



----------------------------------------------|--------------------------------|
----------------------------------------------|----------11b-------------------|
--10-12h10----10-12h10----10-12h10--------10--|--11--12--------12~---10h12h10--|
-----------12----------12----------12-12------|--------------------------------|
----------------------------------------------|--------------------------------|
----------------------------------------------|--------------------------------|



-------------------------|------------------------------------------|
-------------------------|------------------------------------------|
--10--12h10---------0----|--12-15-0-0-10-12-0-0-12-15-0-0-10-12-0-0-|
-------------------------|------------------------------------------|
-------------------------|------------------------------------------|
-------------------------|------------------------------------------|



------------------------------------------|
------------------------------------------|
--12-15-0-0-10-12-0-0-12-15-0-0-10-12-0-0-|
------------------------------------------|
------------------------------------------|
------------------------------------------|



------------------------------------------|
------------------------------------------|
--12-15-0-0-10-12-0-0-12-15-0-0-10-12-0-0-|
------------------------------------------|
------------------------------------------|
------------------------------------------|



-----------------------------------------|
-----------------------------------------|
--12-15-0-0-10-12-0-0-8-10-0-0-10-12-0-0-|
-----------------------------------------|
-----------------------------------------|
-----------------------------------------|



-----------------------------------------|---------------------------------|
-----------------------------------------|---------------------------------|
--12-15-0-0-10-12-0-0-8-10-0-0-10-12-0-0-|--8-10-8-0-7-8-7-0-5-7-5-0-5--3--|
-----------------------------------------|---------------------------------|
-----------------------------------------|---------------------------------|
-----------------------------------------|---------------------------------|



----------------------|----------------------|-----------------------------|
----------------------|----------------------|-----------------------------|
--5b---------7--7--7--|--5r---------5--5h3---|--2--3h2---------------------|
----------------------|----------------------|---------5--3--5h3/2h0-3--5/-|
----------------------|----------------------|-----------------------------|
----------------------|----------------------|-----------------------------|



--------------------------|-------------------|------------------|
--------------------------|-------------------|------------------|
-----5--------5b----5--5--|--5b---------------|------------------|
--7-----7--5-----7--------|-------------------|------------------|
--------------------------|-------------------|------------------|
--------------------------|-------------------|------------------|
Related for Burn tab
Burn chords by Deep Purple