Song name
# A B C D E F G H I J K L M N O P Q R S T U V W X Y Z

Deep Purple - Flight Of The Rat tab

Deep Purple: Flight of the Rat (Deep Purple In Rock, 1970)

Guitar: Ritchie Blackmore
Bass Guitar: Roger Glover
Drums: Ian Paice
Vocals: Ian Gillian
Keyboards: Jon Lord

Intro
E|------------------------|
B|------------------------|
G|------------------------|  Intro
D|-2--2--2---2-----7------|
A|-0--0--0---0--5--5------|
E|--------------3---------|

Verses
E|------------------------|
B|------------------------|
G|------------------------|  Verses
D|-2--2--2---2------------|
A|-0--0--0---0--5--3------|
E|--------------3--1------|

Chorus
E|------------------------|
B|------------------------|
G|------------------------|
D|------------------------|
A|-----7--8--9------------|
E|-----5--6--7------------|

Part between verses:
E|---------------------------------------------------------------------|
B|---------------------------------------------------------------------|
G|---------------------------------------------------------------------|
D|--------------4------5-------7------5------7------9------7------9----|
A|--0-4-7--0--5---0--7----0--9---0--7---0--9---0-10---0--9---0-10---0--|
E|---------------------------------------------------------------------|

E|---------------------------------------------------------------------|
B|---------------------------------------------------------------------|
G|----6-7-8-9~~~~~-7h9p7h9p7h9-----------------------------------------|
D|--7------------------------------------------------------------------|
A|---------------------------------------------------------------------|
E|---------------------------------------------------------------------|

I'm sorry but I don't have the solo.

Lautaro (3/6/2006)

Thanks to: Maxe
Tap to rate this tab
# A B C D E F G H I J K L M N O P Q R S T U V W X Y Z