Song name
# A B C D E F G H I J K L M N O P Q R S T U V W X Y Z

Deep Purple - Hush tab

-------------------------------------------------------------------------------
Deep Purple-Hush
Shades of Deep Purple (1968)
-------------------------------------------------------------------------------

Intro

(0:17)
e|-----------------------------------|
B|---10-8----------------------------|
G|---------10-7-10----10-12-12-------|
D|-----------------12----------------|
A|-----------------------------------|
E|-----------------------------------|

Riff 1 (comes twice during the first chorus)
e|---------------------------------------------------------------------------|
B|---------------------------------------------------------------------------|
G|---------------------------------------------------------------------------|
D|-8-10-8----10-10-8-10-8---10-10-8-10----10-10-8-10-8----10-10-10-----------|
A|--------10--------------10-----------10--------------10--------------------|
E|---------------------------------------------------------------------------|

Riff 2 (2nd chorus)
e|-----------------------------------|
B|-----------------------------------|
G|-----------------------------------|
D|-8-10-10-10-12-12-10-8-8-10--------|
A|-----------------------------------|
E|-----------------------------------|

Riff 3 (2nd chorus)
e|-----9-12-8------------------------|
B|--12--------11-8-------------------|
G|------------------10-8----8--------|
D|-----------------------10----------|
A|-----------------------------------|
E|-----------------------------------|

Riff 4 (3rd chorus)
e|---------------------------------------------------------------------------|
B|---------------------------------------------------------------------------|
G|----------------------------------------------12-12--14--------------------|
D|--14-14-14-12-10----10-14-14-12-10----14-14-14-----------------------------|
A|-----------------12----------------12--------------------------------------|
E|---------------------------------------------------------------------------|

Riff 5 (3rd chorus)
e|--5-5-7-----------------------------12--|
B|--------8-6-------------12-10----13-----|
G|------------7-5------12-------12--------|
D|----------------------------------------|
A|----------------------------------------|
E|----------------------------------------|

Riff 6 (in the last chorus)
e|---------------------------------------------------------------------------|
B|---------------------------------------------------------------------------|
G|---------------------------------------------------------------------------|
D|-8-10-8----10-10-8-10-8---10-10-8-10----13-13-13-13-12-10-8--8-------------|
A|--------10--------------10-----------10------------------------------------|
E|---------------------------------------------------------------------------|


Riff 7
e|------------------------------8-12-8---------------------------------------|
B|-10-10-10-8------10-8------10--------10------------------------------------|
G|------------10-7------10-7--------------9----------------------------------|
D|---------------------------------------------------------------------------|
A|---------------------------------------------------------------------------|
E|---------------------------------------------------------------------------|
Tap to rate this tab
# A B C D E F G H I J K L M N O P Q R S T U V W X Y Z