Song name
# A B C D E F G H I J K L M N O P Q R S T U V W X Y Z

Deep Purple - Pictures Of Home tab

                       Pictures Of Home
                            Deep Purple
                           Machine Head

Intro

|--------------------------------------|------------------------|
|---------------------------------10^~-|------------------------|
|--------------7-------9^--9~--7-7-----|--------------7---------|
|---------7-9---9-7-9~----------9------|---------7-9---9-7-9~~--|
|--5-7-7/9-----------------------------|--5-7-7/9---------------|
|-7------------------------------------|-7----------------------|
/
|----7-7-7-7-7---7-7-7-7-7---7----------------------|
|-10^---------10^---------10^--10-7-----------------|
|----------------------------------10-9-7-----------|
|----------------------------------------9-7--------|
|-------------------------------------------9-7-----|
|----------------------------------------------10---|


|-------------------------------------------------------------------|
|-------------------------------------------------------------------|
|-------------------------------------------------------------------|
|-------------------------------------------------------------------|
|-------------------------------------------------------------------|
|-7---7-7-7---7-7--7----7-7-7--7--7----7-----7--7-----7---7-7-7-7-7-|

|-----------------------------------------------------------------------|
|-----------------------------------------------------------------------|
|-----------------------------------------------------------------------|
|-----------------------------------------------------------------------|
|---------------------------------------------------------5-----5-5-5-5-|
|-7---7-7-7---7-7--7---7-7-7--7--7----7------7--7--7-7-7----------------|

____________________I'm alone here with emptiness eagles and snow_________
||---------------------------------------------------------------------------|
|----------------------------------------------------------------------------|
|----------------------------------------------------------------------------|
|-----------------------------------5--------7-------------------------------|
|-7--7-7-7-7--7-7-7-----------------3--3-3-3-5--5-5-5------------------------|
|------------------7--7-7-7-7--7-7-7---------------------3--3-3-3-3--3-3-3---|

|------------------------------------------------------------------7-------|
|-------------------------------------------------------------7--7---------|
|--------------------------------------------------------------------------|
|--------------------------------------------------------------------------|
|--------------------------------------------------------------------------|
|-2-2-2-2-2-2-2-2-2-2-2-2-2-2-2-2-2-2-2-2-2-2-2-2-2-2-2-2-2-2--------------|

 SOLO

|-----------7-----------------------7---------------------------------|
|10^--10^----10-9-7--------------10^-10-9-7---------------------------|
|------------------10-9--7-9-7-7~----------10-9-7--9-9---9-7---7-7-7~-|
|-------------------------9---9------------------9------9----9--------|
|---------------------------------------------------------------------|
|---------------------------------------------------------------------|

|--------------------------------------------------------------------|
|--------------------------------------------------------------------|
|6^-6^--6--4-----4--6p4-4-6p4-4-6p4-4-6p4-4-6p4-4-6p4-4-6p4-4-6p4--4-|
|-------------6--------6-----6-----6-----6-----6-----6-----6-----6---|
|--------------------------------------------------------------------|
|--------------------------------------------------------------------|

|---------------------------------------------------------7----7-7----7-|
|--------------------------------------------------------7-10^----10^---|
|6p4-6-4-4-6p4-4-6p4-4--4-4-6-4-6-7p6p4-9-7-7--9p7-7-9-10---------------|
|---6---6-----6-----6----6-----------------9------9---------------------|
|-----------------------------------------------------------------------|
|-----------------------------------------------------------------------|

|10p9p7--7-10p7--7-10p7--7-10p7--|10^-10^-10^-10^-10^-10^-----------------|
|------10------10------10------10|----------------------------------------|
|--------------------------------|----------------------------------------|
|--------------------------------|----------------------------------------|
|--------------------------------|----------------------------------------|
|--------------------------------|----------------------------------------|
hold bend-----------------------------------------------------------------|
|10^-10-10-10-10-10-10-10-10-10-10-10--10^-10^-10^-10^-(10)-10-7------7---|
|---------------------------------------------------------------10-7-7-10-|
|-------------------------------------------------------------------9-----|
|-------------------------------------------------------------------------|
|-------------------------------------------------------------------------|
|-------------------------------------------------------------------------|

|7-8-7-8-9p8p7------------10-----12^-|14---14-14---14---15---14-14-|
|-------------10--10-11-12--12-10----|--17^-----19^--19^--19^------|
|---------------11-------------------|-----------------------------|
|------------------------------------|-----------------------------|
|------------------------------------|-----------------------------|
|------------------------------------|-----------------------------|

|---14-14---14---14---14---14---14---14-14---14---14---14-14---14-14---14-14-|
|17^-----17^--17^--17^--17^--17^--17^-----17^--17^--17^-----17^-----17^------|
|----------------------------------------------------------------------------|
|----------------------------------------------------------------------------|
|----------------------------------------------------------------------------|
|----------------------------------------------------------------------------|

|---14-14---14-14---14-14-17^-(17)--17^-17^-17^--17^-17^-17^-17^~------|
|17^-----17^-----17^---------------------------------------------------|
|----------------------------------------------------------------------|
|----------------------------------------------------------------------|
|----------------------------------------------------------------------|
|----------------------------------------------------------------------|
hold bend--------------------------------------------------------------|
|---19-19---19-19---19-19---19-19---19-19---19-19----------------------|
|22^-----22^-----22^-----22^-----22^-----22^-----22^-22-22-22-22-22----|
|----------------------------------------------------------------------|
|----------------------------------------------------------------------|
|----------------------------------------------------------------------|
|----------------------------------------------------------------------|

|-----------------------17^-(17)-14-14---------14-------------------------|
|22^-22^-22^-22^-22^-22^--------------17-14--14--17-14-14-----------------|
|------------------------------------------16-------------17-16-14--16-14-|
|-----------------------------------------------------------------16------|
|-------------------------------------------------------------------------|
|-------------------------------------------------------------------------|
play this some times
|---------------------------| |-------------------------------------------|
|---------------------------| |-------------------------------------------|
|---------------------------| |-------------------------------------------|
|16-14--16-14-16--16--19~~~-| |-------------------------------------------|
|-----16--------------------| |-------------------------------------------|
|---------------------------| |2---2-2--2-2---2-2-2--2---2-2--2-2---2-2-2-|


|--------------------------------------|------------------------|
|---------------------------------10^~-|------------------------|
|--------------7-------9^--9~--7-7-----|--------------7---------|
|---------7-9---9-7-9~----------9------|---------7-9---9-7-9~~--|
|--5-7-7/9-----------------------------|--5-7-7/9---------------|
|-7------------------------------------|-7----------------------|

|----------------6---5---4----|------------------------------------------|
|------------8--------4-3-----|10^~-10^-10^-10^--10^~--10^~--10^~--------|
|-------8---------3-2---------|------------------------------------------|
|---9---------4-3-------------|------------------------------------------|
|--------5-4------------------|------------------------------------------|
|7-6-6-5----------------------|------------------------------------------|

|----------------------------------------------------------------------|
|10--9--7--------------------------------------------------------------|
|---------9^~~~~~~--9-7-6--7-6h7p6\4-6-4h6p4\2--4-2h4p2-0--------------|
|--------------------------------------------------------7-4--5-4-4----|
|-----------------------------------------------------------7----7-5-7-|
|----------------------------------------------------------------------|
9^ ~~~~ ~~ ~~
|------------------------------------------------------------------------|
|-----------------------------------------------------7-10-10^--10^--10^-|
|------------------------------------------7-9-9^-(9)---------------9----|
|---------------------------------------7-9------------------------------|
|5-4-5-4------------------5-4--7-5-7/9-7---------------------------------|
|-------7-5-7~~~-5-7~~-5-7-----------------------------------------------|


|--10-10--10-10--10-10--10-10--10-10--10|----------------------------------|
|11-----11-----11-----11-----11-----11--|-8-7-7----------------------------|
|---------------------------------------|9-9-7-6-9-9-6-9-7-----------------|
|---------------------------------------|---------9---9---9-9--7/9~~-------|
|---------------------------------------|----------------------------------|
|---------------------------------------|----------------------------------|
~~~~~~
|----------------------------------------------------7---------12^-12^-12^--|
|7-10--8-7------------------------------------------7-10^-(10)--------------|
|----9--9-7-9-7-7--9-7------------------7-9-7-7-9-10------------------------|
|--------------9-9----9-8-7-9-7-9-7-8-9--9---9------------------------------|
|------------------------------9--------------------------------------------|
|---------------------------------------------------------------------------|

|12-10-12---------10-12~~-|----14-14-14-14-14---14-14-14-14-14-|
|--------12~-10-12--------|17^---------------17^---------------|
|-------------------------|------------------------------------|
|-------------------------|------------------------------------|
|-------------------------|------------------------------------|
|-------------------------|------------------------------------|

|---14------------------------------------|
|17^--17-14-------------------------------|
|----------17-16-14-----------------------|
|------------------16-14------------------|
|-----------------------16-14-12----------|
|-------------------------------14~~~~----|


 / = SLIDE
 h = HAMMER ON
 ^ = BEND
 ~ = VIBRATO
 p = PULL OFF
Tap to rate this tab
# A B C D E F G H I J K L M N O P Q R S T U V W X Y Z