Guitaretab - guitar tabs
Song name
# A B C D E F G H I J K L M N O P Q R S T U V W X Y Z

Deep Purple - Soldier Of Fortune tab

Soldier of fortune

Intro

Guitar 1

E|---------3--5--6/10--8h10p8---------------------8------------------------------------------|
B|-------3--------------------11-11h13p11---------8--11--13p10--------------11p10------------|
G|-----3----------------------------------12--14--9-------------12--10--12--------12---------|
D|---5--------------------------------------------10-----------------------------------------|
A|------------------------------------------------10-----------------------------------------|
E|------------------------------------------------9------------------------------------------|

Guitar 2

	Gm
E|--------3---------------3---------------3------------------------|
B|------3---3-----------3---3-----------3---3---------------3------|
G|----3-------3-------3-------3-------3-------3-----------3--------|
D|--5-----------5---5-----------5---5-----------5-------5----------|
A|----------------5---------------5---------------5---5------------|
E|--------------------------------------------------3--------------|





1st verse
Guitar 2
   Gm			  F(C var.)	       Gm			Dm
E|---------3----------------5--------------3-------------------------------|
B|-------3---3------------6---6----------3---3-------------5-6-------------|
G|-----3-------3--------5-------5------3-------3---------7-----7-----------|
D|---5-----------5----7-----------7--5-----------5-----7---------7---------|
A|-5----------------8------------------------------5-5-------------5-------|
E|-------------------------------------------------------------------------|
    Gm		  F			Gm			Dm
E|---------3----------------1---------------3-------------------|
B|-------3---3------------1---1-----------3---3-------------5-6-|
G|-----3-------3--------2-------2-------3-------3---------7-----|
D|---5-----------5----3-----------3---5-----------5-----7-------|
A|---------------------------------------------------5----------|
E|-3----------------1---------------3---------------------------|
Chorus 
Bb	  C		    Gm			Eb	  F	    Bb	  D	  Gm
						
E|----------------------------------3-------------------------------------------------3----|
B|-------------------------------3----3----------------------1-------3--------------3------|
G|-------3-------5------------3---------3---3--------------2-------3---------7----3--------|
D|-----3-------5-----------5--------------5--------8-----3-------3---------7----5----------|
A|---1-------3-----------------------------------6-----3-------1---------5-----------------|
E|---------------------------------------------6-------------------------------------------|




    F          Bb	     Eb	    Cm	Dm	 Gm
E|--------1---------------------------------------------3-----|
B|------1---------------------8-----------------------3-------|
G|----2----------7--------8----------5-------7------3---------|
D|--3----------8--------8---8------5-------7------5-----------|
A|-----------8--------6----------3-------5------5-------------|
E|------------------------------------------------------------|




[ Tab from: http://www.guitaretab.com/d/deep-purple/4951.html ]
Solo
Guitar 1
		  ~~~     	    ~~~		  ~~~
E|----------------------/8-/8----------/15-/15---10\8-----8---------|
B|--------/8-/8-------6-/8-/8---10--13-/15-/15---10\8--6--8---------|
G|--/7--5-/7-/7---7-------------------------------------------------|
D|--/7--------------------------------------------------------------|
A|------------------------------------------------------------------|
E|------------------------------------------------------------------|
  		     ~~~		     ~~~
E|-/10-----/15--/15---10\8--6-/10-/10----10\8---/8------------------|
B|-/10--13-/15--/15---10\8----/10-/10----10\8-6-/8---11p10-11p10----|
G|---------------------------------------------------------------12-|
D|------------------------------------------------------------------|
A|------------------------------------------------------------------|
E|------------------------------------------------------------------|

Guitar 2
   Gm           C           Gm               C           Gm
E|---------3-----------------------------------------------------3-------------------|
B|-------3--------------------------3--------------------------3---3-----------------|
G|-----3------------5-------------3---3----------5-----------3-------3---------------|
D|---5------------5---5---------5-------5------5---5-------5-----------5-------------|
A|-5------------3-------3-----5-----------5--3-------3---5---------------------------|
E|--------------------------3--------------------------------------------------------|




    Bb           C          Gm

E|---------------------------------3---|
B|----------3--------------------3-----|
G|------3-----------5----------3-------|
D|----3---3-------5---5------5---------|
A|--1-----------3-------3--5-----------|
E|-------------------------------------|



2nd verse
Guitar 2
   Gm			  F(C var.)	       Gm			Dm
E|---------3----------------5--------------3-------------------------------|
B|-------3---3------------6---6----------3---3-------------5-6-------------|
G|-----3-------3--------5-------5------3-------3---------7-----7-----------|
D|---5-----------5----7-----------7--5-----------5-----7---------7---------|
A|-5----------------8------------------------------5-5-------------5-------|
E|-------------------------------------------------------------------------|

    Gm		  F			Gm			Dm
E|---------3----------------1---------------3------------------|
B|-------3---3------------1---1-----------3---3-------------5-6|
G|-----3-------3--------2-------2-------3-------3---------7----|
D|---5-----------5----3-----------3---5-----------5-----7------|
A|---------------------------------------------------5---------|
E|-3----------------1---------------3--------------------------|

Chorus
Bb	  C		    Gm			Eb	  F	    Bb	  D	  Gm
						
E|----------------------------------3-------------------------------------------------3----|
B|-------------------------------3----3----------------------1-------3--------------3------|
G|-------3-------5------------3---------3---3--------------2-------3---------7----3--------|
D|-----3-------5-----------5--------------5--------8-----3-------3---------7----5----------|
A|---1-------3-----------------------------------6-----3-------1---------5-----------------|
E|---------------------------------------------6-------------------------------------------|


    F          Bb	     Eb	    Cm	Dm	 Gm
E|--------1---------------------------------------------3-----|
B|------1---------------------8-----------------------3-------|
G|----2----------7--------8----------5-------7------3---------|
D|--3----------8--------8---8------5-------7------5-----------|
A|-----------8--------6----------3-------5------5-------------|
E|------------------------------------------------------------|

End
    Gm       F            Bb	     Eb	    Cm	Dm	 
E|-------3--------1----------------------------------------------|
B|-----3--------1--------------------------8---------------------|
G|---3--------2---------------7--------8----------5-------7------|
D|-5--------3---------------8--------8---8------5-------7--------|
A|------------------------8--------6----------3-------5----------|
E|---------------------------------------------------------------|

    
    Cm          Dm        G

E|--3-----------5---------3-------3-|
B|--4-----------6---------3---------|
G|--5-----------7---------4---------|
D|--5-----------7---------5---------|
A|--3-----------5---------5---------|
E|------------------------3---------|
Related for Soldier Of Fortune tab
Soldier Of Fortune chords by Deep Purple