Song name
# A B C D E F G H I J K L M N O P Q R S T U V W X Y Z

Deep Purple - King Of Dreams tab

#----------------------------------PLEASE NOTE---------------------------------#
#This file is the author's own work and represents their interpretation of the #
#song. You may only use this file for private study, scholarship, or research. #
#------------------------------------------------------------------------------##

                                 KING OF DREAMS
                           As recorded by Deep Purple
                    (From the 1990 Album SLAVES AND MASTERS)

Words and Music by Blackmore, Glover, Turner
Transcribed by Drimascus_God_Of_Thunder

Gtr I (E A D G B E) - 'Ritchie'
Gtr II (E A D G B E) - 'Guitar 2'

 Intro 1
  Q=112
 4/4
  Gtr I
  Wx8
|--------|
|--------|
|--------|
|--------|
|--------|
|--------|


 Intro 2
  Wx6          E E q  E E E E   +W
|------------|----------------|--------|
|------------|---8-8--7-7---5-|-(5)----|
|------------|---9-9--7-7---6-|-(6)----|
|------------|----------------|--------|
|------------|----------------|--------|
|------------|----------------|--------|


 Verse 1
  Em
  E E E E H      E E E E H      E E E E H      Q  E E H
|--------------|--------------|--------------|-------------|
|--------------|--------------|--------------|-------------|
|--------------|--------------|--------------|-------------|
|-5------------|-5------------|-5------------|-------------|
|---7---7------|---7----------|---7---7------|-5----7------|
|--------------|-------0------|--------------|-------------|


  Em                                            A
  E E E E H      Q  E E H      E E q  E E E E   +W
|--------------|-------------|----------------|--------|
|--------------|-------------|---8-8--7-7---5-|-(5)----|
|--------------|-------------|---9-9--7-7---6-|-(6)----|
|-5------------|-------------|----------------|--------|
|---7---7------|-5----7------|----------------|--------|
|--------------|-------------|----------------|--------|


  Em
  E E q  q  Q    E E H.        E E E E H      E E +H     Q
|--------------|-------------|--------------|---------------|
|--------------|-------------|--------------|---------------|
|--------------|-------------|--------------|---------------|
|---5----------|-------------|-5------------|---------------|
|-----7--7-----|-5-7---------|---7---7------|-5-7-(7)-------|
|--------------|-------------|--------------|---------------|


  Em                                            A
  E E E E H      E E H.        E E q  E E E E   +W
|--------------|-------------|----------------|--------|
|--------------|-------------|---8-8--7-7---5-|-(5)----|
|--------------|-------------|---9-9--7-7---6-|-(6)----|
|-5------------|-------------|----------------|--------|
|---7---7------|-5-7---------|----------------|--------|
|--------------|-------------|----------------|--------|


                                         Chorus
                                          E5    C5
  +W           +W           +W            E E E E +H
|------------|------------|------------||----------------|
|-(5)--------|-(5)--------|-(5)--------||----------------|
|-(6)--------|-(6)--------|-(6)--------||-9-9---5-(5)----|
|------------|------------|------------||-9-9---5-(5)----|
|------------|------------|------------||-7-7---3-(3)----|
|------------|------------|------------||----------------|


  A5    D5 C#5 D5  Eb5   E5    C5         A5    D5         E5    C5
  E E E Q   E   E   E    E E E E +H       E E E E +H       E E E E +H
|----------------------|----------------|----------------|----------------|
|----------------------|----------------|----------------|----------------|
|-------7--(6)-(7)-(8)-|-9-9---5-(5)----|-------7-(7)----|-9-9---5-(5)----|
|-7-7---7--(6)-(7)-(8)-|-9-9---5-(5)----|-7-7---7-(7)----|-9-9---5-(5)----|
|-7-7---5--(4)-(5)-(6)-|-7-7---3-(3)----|-7-7---5-(5)----|-7-7---3-(3)----|
|-5-5------------------|----------------|-5-5------------|----------------|


  A5    D5 C#5 D5  Eb5   E5    C5
  E E E Q   E   E   E    E E E E +H
|----------------------|----------------|
|----------------------|----------------|
|-------7--(6)-(7)-(8)-|-9-9---5-(5)----|
|-7-7---7--(6)-(7)-(8)-|-9-9---5-(5)----|
|-7-7---5--(4)-(5)-(6)-|-7-7---3-(3)----|
|-5-5------------------|----------------|


  A5    D5 C#5 D5  Eb5   E5
  E E E Q   E   E   E    W          +H.      +Q
|----------------------|----------|----------------|
|----------------------|----------|----------------|
|-------7--(6)-(7)-(8)-|-9--------|-(9)------(9)\--|
|-7-7---7--(6)-(7)-(8)-|-9--------|-(9)------(9)\--|
|-7-7---5--(4)-(5)-(6)-|-7--------|-(7)------(7)\--|
|-5-5------------------|----------|----------------|


  D5                          C5
  W          +H.      +Q      W          +H.      +Q
|----------|----------------|----------|----------------|
|----------|----------------|----------|----------------|
|-7--------|-(7)------(7)\--|-5--------|-(5)------(5)\--|
|-7--------|-(7)------(7)\--|-5--------|-(5)------(5)\--|
|-5--------|-(5)------(5)\--|-3--------|-(3)------(3)\--|
|----------|----------------|----------|----------------|


 Verse 2
  Em
  E E E E Q  Q    E E E E +H       E E E E E E E E   E E E E +Q   Q
|---------------|----------------|-----------------|-----------------|
|---------------|----------------|-----------------|-----------------|
|---------------|----------------|-----------------|-----------------|
|---------------|----------------|-5---------------|-----------------|
|-5-7-7-7-7--5--|-5-7---7-(7)----|---7---7---7---7-|-5-7-------------|
|---------------|----------------|-----------------|-------0-(0)-----|


  Em                                             A
  E E E E H      E E E E H      E E q  E E E E   +W
|--------------|--------------|----------------|--------|
|--------------|--------------|---8-8--7-7---5-|-(5)----|
|--------------|--------------|---9-9--7-7---6-|-(6)----|
|-5------------|--------------|----------------|--------|
|---7---7------|-5-7---7------|----------------|--------|
|--------------|--------------|----------------|--------|


  Em
                              |-3-|
  E E E E Q.   E   E E E Q.   S S S E   E E E E E E E E   E E E E +H
|----------------|--------------------|-----------------|----------------|
|----------------|--------------------|-----------------|----------------|
|----------------|--------------------|-----------------|----------------|
|-5--------------|--------------------|-5---------------|----------------|
|---7---7--------|-5-7----------------|---7---7---7---7-|-5-7---7-(7)----|
|--------------0-|-------0----2-3-2-0-|-----------------|----------------|


  Em                                             A
  E E E E H      E E H    Q     E E q  E E E E   +W
|--------------|--------------|----------------|--------|
|--------------|--------------|---8-8--7-7---5-|-(5)----|
|--------------|--------------|---9-9--7-7---6-|-(6)----|
|-5------------|--------------|----------------|--------|
|---7---7------|-5-7------5/--|----------------|--------|
|--------------|--------------|----------------|--------|


                                         Chorus
  A                                       E5    C5
  +W           +W           +W            E E E E +H
|------------|------------|------------||----------------|
|-(5)--------|-(5)--------|-(5)--------||----------------|
|-(6)--------|-(6)--------|-(6)--------||-9-9---5-(5)----|
|------------|------------|------------||-9-9---5-(5)----|
|------------|------------|------------||-7-7---3-(3)----|
|------------|------------|------------||----------------|


  A5    D5 C#5 D5  Eb5   E5    C5         A5    D5         E5
  E E E Q   E   E   E    E E E E +H       E E E E +H       E E E E +H
|----------------------|----------------|----------------|----------------|
|----------------------|----------------|----------------|----------------|
|-------7--(6)-(7)-(8)-|-9-9---5-(5)----|-------7-(7)----|-9-9---5-(5)----|
|-7-7---7--(6)-(7)-(8)-|-9-9---5-(5)----|-7-7---7-(7)----|-9-9---5-(5)----|
|-7-7---5--(4)-(5)-(6)-|-7-7---3-(3)----|-7-7---5-(5)----|-7-7---3-(3)----|
|-5-5------------------|----------------|-5-5------------|----------------|


  A5    D5 C#5 D5  Eb5   E5    C5         A5    D5         Em
  E E E Q   E   E   E    E E E E +H       E E E E +H       W          +W
|----------------------|----------------|----------------|----------|--------|
|----------------------|----------------|----------------|----------|--------|
|-------7--(6)-(7)-(8)-|-9-9---5-(5)----|-------7-(7)----|----------|--------|
|-7-7---7--(6)-(7)-(8)-|-9-9---5-(5)----|-7-7---7-(7)----|----------|--------|
|-7-7---5--(4)-(5)-(6)-|-7-7---3-(3)----|-7-7---5-(5)----|-2--------|-(2)----|
|-5-5------------------|----------------|-5-5------------|-0--------|-(0)----|


  D                     C
                             <
  W          W          Q    H.          W
|----------|----------|----<12>------|-<12>----|
|----------|----------|--------------|---------|
|----------|----------|--------------|---------|
|----------|----------|--------------|---------|
|----------|----------|--------------|---------|
|----------|----------|--------------|---------|


 Interlude
  Wx4
|--------|
|--------|
|--------|
|--------|
|--------|
|--------|


  Em
  Q  E E    Q  Q    E E Q  H      +E  Q  a H      +E    E E S E. a Q.    E
|-----------------|-------------|---------------------|----------------------|
|----5-8b10r8--5--|---5---------|---------------------|----------------------|
|-----------------|-8---8--4----|-(4)-5--5-5b7r===(5)-|-5-4-4-5--5-5b7r==5---|
|-----------------|-------------|---------------------|----------------------|
|-----------------|-------------|---------------------|----------------------|
|-----------------|-------------|---------------------|----------------------|


  Em
                        |--3---| |-3--| |-3--| |-3-|
  E Q  E E    Q  E      E E    E E    Q E  E E E E E
|---------------------|------------------------------|
|---------------------|------------------------------|
|-4-5--7-7b9==7r=7b9==|=7r7b9==7r7b9==7-7r-7-5-4---4-|
|---------------------|--------------------------7---|
|---------------------|------------------------------|
|---------------------|------------------------------|


  Q.   E E Q.     +H     E E Q
|---------------|----------------|
|---------------|----------------|
|---------------|----------------|
|-5----6-6-7----|-(7)----6-5-4---|
|---------------|----------------|
|---------------|----------------|


  Em
                ~~~
                                         |--3---| |-3-|
  H.      Q    +H.      Q    W          +Q   Q  Q Q Q Q
|------------|-------------|----------|-----------------|
|------------|-------------|----------|-----------------|
|------------|-------------|----------|-----------------|
|------------|----------7--|-9--------|-(9)-12-11-7-9-7-|
|-5-------5--|-(5)------5--|-7--------|-(7)-10--9-5-7-5-|
|------------|-------------|----------|-----------------|


  Em
                    |---3---|                                |----6----|
  Q    H.          +Q    Q  Q H      Q  a H.        +H.      S S S S S S
|----<12>------|-(<12>)------------|--------------|----------------------|
|--------------|-------------------|--------------|----------------------|
|--------------|-------------------|--------------|----------------------|
|--------------|--------12-11-7----|--------------|----------------------|
|--------------|--------10--9-5----|----5-7-------|-(7)------5-7-5-7-5-7-|
|--------------|-------------------|-0------------|----------------------|


                                     Bridge
  Em                                  Em
  |----6----|
  S S S S S S H.        +W            E E q  E E Q    W
|---------------------|------------||---------------|------|
|---------------------|------------||---8-8--7-7----|------|
|---------------------|------------||---9-9--7-7----|------|
|-------------9-------|-(9)--------||---------------|------|
|-5-7-5-7-5-7-7-------|-(7)--------||---------------|------|
|---------------------|------------||---------------|------|


  Em
  E E q  E E Q    W          E E q  E E Q    W
|---------------|----------|---------------|------|
|---8-8--7-7----|----------|---8-8--7-7----|------|
|---9-9--7-7----|----------|---9-9--7-7----|------|
|---------------|----------|---------------|------|
|---------------|----------|---------------|------|
|---------------|----------|---------------|------|


  Em               A            Em
  E E q  E E E E   +W           E E q  E E Q    W
|----------------|------------|---------------|------|
|---8-8--7-7---5-|-(5)--------|---8-8--7-7----|------|
|---9-9--7-7---6-|-(6)--------|---9-9--7-7----|------|
|----------------|------------|---------------|------|
|----------------|------------|---------------|------|
|----------------|------------|---------------|------|


  Em                         Em
  E E q  E E Q    W          E E q  E Q.     W
|---------------|----------|---------------|------|
|---8-8--7-7----|----------|---8-8--7-7----|------|
|---9-9--7-7----|----------|---9-9--7-7----|------|
|---------------|----------|---------------|------|
|---------------|----------|---------------|------|
|---------------|----------|---------------|------|


  Em               A            Am
  E E q  E E E E   +W           Wx3
|----------------|------------|--------|
|---8-8--7-7---5-|-(5)--------|--------|
|---9-9--7-7---6-|-(6)--------|--------|
|----------------|------------|--------|
|----------------|------------|--------|
|----------------|------------|--------|


   Chorus
    E5    C5         A5    D5         E5    C5         A5    D5 C#5 D5  Eb5
    E E E E +H       E E E E +H       E E E E +H       E E E Q   E   E   E
||-----------------|----------------|----------------|-----------------------|
||o----------------|----------------|----------------|-----------------------|
||--9-9---5-(5)----|-------7-(7)----|-9-9---5-(5)----|-------7--(6)-(7)-(8)--|
||--9-9---5-(5)----|-7-7---7-(7)----|-9-9---5-(5)----|-7-7---7--(6)-(7)-(8)--|
||o-7-7---3-(3)----|-7-7---5-(5)----|-7-7---3-(3)----|-7-7---5--(4)-(5)-(6)--|
||-----------------|-5-5------------|----------------|-5-5-------------------|


  E5    C5         A5    D5 C#5 D5  Eb5
  E E E E +H       E E E Q   E   E   E
|----------------|----------------------|
|----------------|----------------------|
|-9-9---5-(5)----|-------7--(6)-(7)-(8)-|
|-9-9---5-(5)----|-7-7---7--(6)-(7)-(8)-|
|-7-7---3-(3)----|-7-7---5--(4)-(5)-(6)-|
|----------------|-5-5------------------|


  E5    C5         A5    D5 C#5 D5  Eb5
  E E E E +H       E E E Q   E   E   E
|----------------|----------------------|
|----------------|----------------------|
|-9-9---5-(5)----|-------7--(6)-(7)-(8)-|
|-9-9---5-(5)----|-7-7---7--(6)-(7)-(8)-|
|-7-7---3-(3)----|-7-7---5--(4)-(5)-(6)-|
|----------------|-5-5------------------|


                             Outro
  1.                         2.
  E5                    D5    E5
  W          +H.      E E     W
|----------|---------------||----------|
|----------|--------------o||----------|
|-9--------|-(9)------9-7--||-9--------|
|-9--------|-(9)------9-7--||-9--------|
|-7--------|-(7)------7-5-o||-7--------|
|----------|---------------||----------|
|
| Gtr II
| W           W               W
|----------|---------------||----------|
|----------|--------------o||----------|
|----------|---------------||----------|
|----------|---------------||----------|
|----------|--------------o||----------|
|----------|---------------||----------|


                         D5
  +H.         +Q          W
|-------------------|-------------------------|
|-------------------|-------------------------|
|-(9)---------(9)\--|-----7-------------------|
|-(9)---------(9)\--|-----7-------------------|
|-(7)---------(7)\--|-----5-------------------|
|-------------------|-------------------------|
|
|  Q.    Q.    Q       a  H        a  H
|-12----14----15----|-15-15b17----15-15b17----|
|-------------------|-------------------------|
|-------------------|-------------------------|
|-------------------|-------------------------|
|-------------------|-------------------------|
|-------------------|-------------------------|


  D5                   C5
  +H.          +Q       W
|--------------------|---------------------------------------------|
|--------------------|---------------------------------------------|
|-(7)----------(7)\--|--5------------------------------------------|
|-(7)----------(7)\--|--5------------------------------------------|
|-(5)----------(5)\--|--3------------------------------------------|
|--------------------|---------------------------------------------|
|
|                           |------6-------|      |------6-------|
|  H        Q   Q       Q   S  S  S  S  S  S  Q   S  S  S  S  S  S
|-15b17----15--14----|-15--14-15-14-15-14-15-14--12-14-12-14-12-14-|
|--------------------|---------------------------------------------|
|--------------------|---------------------------------------------|
|--------------------|---------------------------------------------|
|--------------------|---------------------------------------------|
|--------------------|---------------------------------------------|


                     E5
  +H.        +Q       W            W
|------------------|-----------|--------*|
|------------------|-----------|-/12----*|
|-(5)--------(5)\--|-----------|--------*|
|-(5)--------(5)\--|-----------|--/9----*|
|-(3)--------(3)\--|--2--------|--------*|
|------------------|--0--------|--------*|
|
|  H      Q   Q       W            W
|-12---------------|-----------|--------*|
|--------15--12----|-----------|--------*|
|------------------|-12--------|--------*|
|------------------|-----------|--------*|
|------------------|-----------|--------*|
|------------------|-----------|--------*|


Duration Legend
---------------
W - whole; H - half; Q - quarter; E - 8th; S - 16th; T - 32nd; X - 64th; a - acciaccatura
+ - note tied to previous; . - note dotted; .. - note double dotted
Uncapitalized letters represent notes that are staccato (1/2 duration)
Irregular groupings are notated above the duration line
Duration letters will always appear directly above the note/fret number it represents the
duration for.  Duration letters with no fret number below them represent rests.  Multi-
bar rests are notated in the form Wxn, where n is the number of bars to rest for.  Low
melody durations appear below the staff

Tablature Legend
----------------
 h   - hammer-on
 p   - pull-off
 b   - bend
 pb  - pre-bend
 r   - bend release (if no number after the r, then release immediately)
 /\  - slide into or out of (from/to "nowhere")
 s   - legato slide
 S   - shift slide
  - natural harmonic
[n]  - artificial harmonic
n(n) - tapped harmonic
 ~   - vibrato
 tr  - trill
 T   - tap
 TP  - trem. picking
 PM  - palm muting
\n/  - tremolo bar dip; n = amount to dip
 \n  - tremolo bar down
 n/  - tremolo bar up
/n\  - tremolo bar inverted dip
 =   - hold bend; also acts as connecting device for hammers/pulls
 <>  - volume swell (louder/softer)
 x   - on rhythm slash represents muted slash
 o   - on rhythm slash represents single note slash

Misc Legend
-----------
 |  - bar
||  - double bar
||o - repeat start
o|| - repeat end
*|  - double bar (ending)
 :  - bar (freetime)
 $  - Segno
 &  - Coda
Tempo markers -  = BPM(8/16=s8/s16), where s8 = swing 8ths, s16 = swing 16ths


***************************************************************************************
* Generated using Power Tab Editor by Brad Larsen - http://powertab.guitarnetwork.org *
***************************************************************************************
Tap to rate this tab
# A B C D E F G H I J K L M N O P Q R S T U V W X Y Z