Song name
# A B C D E F G H I J K L M N O P Q R S T U V W X Y Z

Deep Purple - Mandrake Root tab

Deep Purple: Mandrake Root (Shades of Deep Purple, 1968)

Guitar: Ritchie Blackmore
Bass Guitar: Nicky Simper
Drums: Ian Paice
Vocals: Rod Evans
Keyboards: Jon Lord


Intro:

E|--------------------------------------------------|
B|--8-----------------------------------------------|
G|--7-----------------------------------------------|
D|--6-----------------------------------------------|
A|--7-----------------------------------------------|
E|--------------------------------------------------|
Let ring.

E7#9
E|--------------------------------------------------|
B|-------8-------8------8---------------------------|
G|-------7-------7------7---------------------------|
D|-------6-------6------6---------------------------|
A|-------7-------7------7---------------------------|
E|--0-0-----0-0-----0-0----6-5-3--------------------|
PM_____|  PM___|  PM___|  PM____|

E|--------------------------------------------------|
B|--------------------------------------------------|
G|--------------------------------------------------|
D|--5-5555-5--8-7--5-5555-5-2-----------------------|
A|--5-5555-5--8-7--5-5555-5-2-----------------------|
E|--3-3333-3--6-5--3-3333-3-0-----------------------|

E|--------------------------------------------------|
B|--------------------------------------------------|
G|--------------------------------------------------|
D|--------------------------------------------------|
A|--8-7-5-2-----------------------------------------|
E|--6-5-3-0-----------------------------------------|


E|--------------------------------------------------|
B|--------------------------------------------------|
G|--------------------------------------------------|
D|--------------------------------------------------|
A|--5-5-5-5--5-5-5-5--7-7-7-7--7-7-7-7--------------|
E|--3-3-3-3--3-3-3-3--5-5-5-5--5-5-5-5--------------|


E|--------------------------------------------------|
B|--------------------------------------------------|
G|--------------------------------------------------|
D|--------------------5-5-5-5--5-5-5-5--------------|
A|--5-5-5-5--5-5-5-5--3-3-3-3--3-3-3-3--------------|
E|--3-3-3-3--3-3-3-3--------------------------------|


E|--------------------------------------------------|
B|--------------------------------------------------|
G|--------------------------------------------------|
D|--7-7-7-7--7-7-7-7--9-9-9-9--9-9-9-9--------------|
A|--5-5-5-5--5-5-5-5--7-7-7-7--7-7-7-7--------------|
E|--------------------------------------------------|

Lautaro (3/6/2006)
Tap to rate this tab
# A B C D E F G H I J K L M N O P Q R S T U V W X Y Z