Guitaretab - guitar tabs
Song name
# A B C D E F G H I J K L M N O P Q R S T U V W X Y Z

Deep Purple - Love Conquers All tab

-----------------------------------------------------------------
Deep Purple - Love Conquers All
-----------------------------------------------------------------
Tabbed by: Amarthil
Email: amarthil@abv.bg
Tuning: Standard (EBGDAE)

OK, here`s a more full tab. The solo is realy nice (Though it is farely easy to play). Enjoy! 
Oh, and if you like the tab - please rate it :)

Intro - Am

e|-------0--------------0-----------------------------------------|
B|-----1---1----------1---1---------------------------------------|
G|---2-------2------2-------2-------------------------------------|
D|-------------2--------------2-----------------------------------|
A|-0--------------0-----------------------------------------------|
E|----------------------------------------------------------------|

Am             C                Dm                    Am
Feels like the end, when you're closer to losing your dreams
              G
Than losing a friend.
Am     C          Dm                Am
Flying blind. I'm shooting into the dark.
           G
Who will I find?


F G  Am    Dm         C          G
Oh   girl,  and if it takes me a lifetime
F      G          Am              Dm
I swear I'll tear down every wall.
C             Bb           F                        
Love conquers all.

[ Tab from: http://www.guitaretab.com/d/deep-purple/56922.html ]
Am    C      Dm                     Am
On my way. Tomorrow I rise with the sun.
             G
Soon I'll be gone.
Am    C                 Dm                      Am
Words can't say how the memories of feelings of love
            G
They linger on


F G  Am   Dm          C           G
Oh   girl,  and if it takes me forever
F           G           Am                 Dm
I know it's worth every teardrop that falls
C             Bb       F                        
Love conquers all.

Eb                  Bb
Somewhere there's a place in your heart
          Fm           Cm
Where the wounds never heal
       Eb                         Bb
You're not alone, well you're not alone
                F
That's just how I feel

Solo

e|------------------------------------------------------------------|
B|------------------------------------------------------------12-13~|
G|--------------------------------------------------12~-12-14~------|
D|---------------------------12~-14~15-14~-12-14-15-----------------|
A|--15-14-12~--12-14-15-15~-----------------------------------------|
E|------------------------------------------------------------------|

e|-----------------15/17/15-15/17/15-12-15-10~-------------------|
B|-----12-13-15-13-----------------------------------------------|
G|--14-----------------------------------------------------------|
D|---------------------------------------------------------------|
A|---------------------------------------------------------------|
E|---------------------------------------------------------------|


F  G          Am
Love conquers all
Dm       C           G
This one will last a lifetime
F       G            Am
And if love conquers all
Dm       C         Bb
This one will last forever

Related for Love Conquers All tab
Advertisement will be closed in 10 seconds