Song name
# A B C D E F G H I J K L M N O P Q R S T U V W X Y Z

Deep Purple - Mary Long tab

-------------------------------------------------------------------------------
Deep Purple-Mary Long
-------------------------------------------------------------------------------

Solo

e|--------------------------------------------|
B|--------------------------------------------|
G|--------------------------------------------|
D|----------10-12-10---14-10----10-10---------|
A|-12-12-12------------------12-------12------|
E|--------------------------------------------|

e|---------------|
B|---------------|
G|-12------------| 3x
D|----14p12p10---|
A|---------------|
E|---------------|

e|--------------------------------------------------------------------|
B|--------------------------------------------------------------------|
G|-------------------------------12----14-14-14-12-14-14-14-12-14-----|
D|-14-14-14-14p12-10-12-10-12-14----14--------------------------------|
A|--------------------------------------------------------------------|
E|--------------------------------------------------------------------|

e|--------------------------------------------------------------------|
B|----------------13----------------------13--------------------------|
G|----12-14-12-------14-12-14-12-14-12-------14-12-14-12-14-12--------|
D|-14----------14----------------------14----------------------14-----|
A|--------------------------------------------------------------------|
E|--------------------------------------------------------------------|

e|-------------12-10----10----12-10----------10b12-12-12-12-12--------|
B|-13----------------13----13-------13-10-13--------------------------|
G|----14-12-14--------------------------------------------------------|
D|--------------------------------------------------------------------|
A|--------------------------------------------------------------------|
E|--------------------------------------------------------------------|

e|-12r10----10----/12----13----13----13----13----13-13b14-14-b15------|
B|-------13----13-----15----15----15----15----15----------------------|
G|--------------------------------------------------------------------|
D|--------------------------------------------------------------------|
A|--------------------------------------------------------------------|
E|--------------------------------------------------------------------|
Tap to rate this tab
 
# A B C D E F G H I J K L M N O P Q R S T U V W X Y Z