Song name
# A B C D E F G H I J K L M N O P Q R S T U V W X Y Z

Deep Purple - Junkyard Blues tab

e-------------------------------|
b-------------------------------|
g-------------------------------|
d-------------------------------|
a-7-5-4-5---------7-5---5-------|
e---------6-7-5-3-----7---5-3-0-|

e-------------------------------|
b-------------------------------|
g-------------------------------|
d-------------------------------|
a-7-5-4-5---------7-5---5-------|
e---------6-7-5-3-----7---5-3-0-|
Tap to rate this tab
# A B C D E F G H I J K L M N O P Q R S T U V W X Y Z