Song name
# A B C D E F G H I J K L M N O P Q R S T U V W X Y Z

Deep Purple - Wring That Neck tab

----------------------------------------------------------------------------
	    hard road(wring that neck) - deep purple
----------------------------------------------------------------------------
Tabbed by:niftypapaya
Email:led.zeppelin.15@hotmail.com

Tuning:stanard

kk so this is the intro before the keyboard

pull off: p
hammer on: h
slide: /
bend: ^

e|-------6-3------6-3-------6-3-----6-3-----6-3-6-3-|
B|--3h6p3----3h6p6-----3h6p6---3h6p3---3h6p3--------|
G|-0--------0---------0-----------------------------|
D|--------------------------------------------------|
A|--------------------------------------------------|
E|--------------------------------------------------|

e|----------9p8p6-8-6-------9p8p6-8-6-|-------4p3-4--|-------------------|
B|----6h7p6------------6h7p6----------|----3-6---6-6-|----3-6-5-3--------|
G|-/7-----------------7---------------|-0-3----------|-0-3--------5-3-2^-|
D|------------------------------------|--------------|-------------------|
A|------------------------------------|--------------|-------------------|
E|------------------------------------|--------------|-------------------|

kk this is the fast part and it might not sound so good at the start but keep at it and 
playing it up to speed and it'll sound fine.

e|----------------3-4-6-5-|----------------3-4-6-5-|
B|-----------3-4-6--------|-----------3-4-6--------|
G|------2-3-5-------------|------2-3-5-------------|
D|-1-3-5------------------|-1-3-5------------------|
A|------------------------|------------------------|
E|------------------------|------------------------|

e|-------------------------|--------------|
B|-/8-6--6-6---------------|--------------|
G|------7-7-5-7-3-5-7-5-3--|---5----5-6-7-|
D|-------------7---------5-|-5-5-5--5-6-7-|
A|-------------------------|-5-3-5--3-4-5-|
E|-------------------------|-3---3--------|

kk so play that whole thing twice and then the keyboard kicks in
email me and make commennd corrections if u like...
Tap to rate this tab
 
# A B C D E F G H I J K L M N O P Q R S T U V W X Y Z