Song name
# A B C D E F G H I J K L M N O P Q R S T U V W X Y Z

Deep Purple - Jack Ruby tab

 Jack Ruby Tab by Deep Purple
Tabbed by Mathias Braathen
                                        X 3

E-||-----------------------------------------||--------------------------------|
B-||*---------------------------------------*||--7---------5---3---3-----------|
G-||------------------0----------------------||--7-5-------5---4---2---0-------|
D-||------0-----3-------0-3---0--------------||------7-5-7---7---5---5---3-2-0-|
A-||*-4-5---4h5---4-5-------4---4b5-0-3-2-0-*||--------------------------------|
E-||-----------------------------------------||--------------------------------|

E|---------|-----------------|------------------------|---------------------------|
B|---------|--------------5-|------------------------|----------------------------|
G|---------|-2----------x-5-|------------------4b5-2|-------------x-x-x-----------|
D|---------|-2----/7-5--x----|------------------------|-------------x-x-x---------|
A|-3-0-----|-0---------------|----------------0-------|-------------x-x-x--{2}b4--|
E|-----3b4-|-----------------|--0-3b4-5-5~------------|-0-3b4-5-5~----------------|

                         Vocals Enter

E--|------------------------|-----------------------|---------------------|------|
B--|--------------------5---|-----------------------|---------------------|------|
G--|--------------------5---|-----------------------|---------------------|------|
D--|----------------------7|--------------7--7-5---|------------7--7-5---|---5---|
A--|------------------------|---------------------7|-------------------7-|-7-----|
E--|--0-3b4-5-5~----5-3-----|--0-3b4-5-5~-----------|-0-3b4-5-5~----------|------|

E------------------|--------------------|----------------------|---------------|
B------------------|--------------------|----------------------|---------------|
G------------------|--------------------|------------7--7-5----|-----------7-7-|
D-6-7----7--7-5----|-----------7--7-5---|---5-6-7-----------7~-|---------------|
A---------------7~-|------------------7-|-7--------5-----------|-0-3-5-5~------|
E------5~----------|-0-3-5-5~-----------|----------------------|---------------|

E--------------|-------------|----------------------------|--------------------|
B--------------|-------------|----------------------------|--------------------|
G-5------5-6-7-|-------------|----------------------------|---9-9------------7-|
D---7~-7-------|---7--7-5----|-----------7--7-5-----5-6-7-|---9-9------------7-|
A--------------|----------7~-|------------------7-7-------|---7-7-5------5-7-5-|
E--------------|-5-----------|-0-3-5-5~-------------------|-0-------7--7-------|

E-|-----------------|--------------------|---------------------|-----------------|
B-|-----------------|--------------------|---------------------|-----------------|
G-|-----------------|--------------------|---------------------|-----------------|
D-|--------7--7-5---|-----------7--7-5---|---5-6-7----7--7-5---|-----------7--7--|
A-|------0--------7-|------------------7-|-7-----------------7|------------------|
E-|-----------------|-0-3-5-5~-----------|---------5~----------|-0-3-5-5~--------|

E-----|---------------------|--------------------|----------------------|--------|
B-----|---------------------|--------------------|----------------------|--------|
G-----|---------------------|--------------------|------------7--7-5----|--------|
D-5---|---5-6-7----7--7-5---|-----------7--7-5---|---5-6-7-----------7~-|--------|
A---7-|-7-----------------7|------------------7-|-7--------5-----------|-0-3-5---|
E-----|---------5~----------|-0-3-5-5~-----------|----------------------|--------|

E----------------------|-------------|----------------------------|------------|
B----------------------|-------------|----------------------------|------------|
G-----7-7-5------5-6-7-|-------------|----------------------------|---9-9------|
D-----------7~-7-------|---7--7-5----|-----------7--7-5-----5-6-7-|---9-9------|
A-5~-------------------|----------7~-|------------------7-7-------|---7-7-5----|
E----------------------|-5-----------|-0-3-5-5~-------------------|-0-------7--|

                                                   X 4     Organ Solo

E---------|-||-----------------------------------------||-----------|----------|
B---------|-||*---------------------------------------*||-----------|----------|
G-------7-|-||-----------------------------------------||-----------|----------|
D-------7-|-||------------------0----------------------||-----------|---5-7-7--|
A---5-7-5-|-||*-----0--h--3-------0-3---0-------------*||-----------|-0-3-5-5--|
E-7-------|-||--4-5---4-5---4-5-------4---4b5-5-3-2-0--||-----------|----------|

E----|-------------|------------------|---------------|-------------|------------|
B----|-------------|------------10----|---------------|-------------|------------|
G----|-------------|------------10----|--------7----7-|-------------|------------|
D----|---5--7------|---5-7-7-------12|--------5----5-|-------------|---------7---|
A----|-0-3--5------|-0-3-5-5----------|--0-3-5--------|---3-5-5-----|-------0-5--|
E----|-------------|------------------|---------------|-0-1-3-3-----|-0-3-4------|

E------|------------------|----------------|------------------|-----------------|
B----6-|------------------|----------------|------------------|-----------------|
G----5-|------------------|----------------|------------------|-----------7-----|
D------|------------------|----------------|------------------|-----------7-----|
A------|-0-3-5-5--5-5-3-0-|-0-3-4-5-7-----|-0-3-4-5-5--------|--0-3-4-5--5------|
E------|------------------|---------5-----|---------3--------|------------------|

E--|------------|-13b15---10------------------|-10-------------------------------|
B--|------------|------------13-10-13-x-15~---|----13-------13----12----10-------|
G--|------------|-----------------------------|-------13-14----12----13----13-10-|
D--|---5-5-7----|-----------------------------|----------------------------------|
A--|-0-3-3-5----|-----------------------------|----------------------------------|
E--|------------|-----------------------------|----------------------------------|

E|--------------------------|------------------------------------------12-13-15-|
B|-------------10-----------|------------9-10------------9-10-12-13/15----------|
G|-11-12-13/14-10-----------|----9-10-12---------9-10-12------------------------|
D|----------------12~-------|-12--------------12--------------------------------|
A|--------------------------|---------------------------------------------------|
E|--------------------------|---------------------------------------------------|

E|-15b17-|--19b20---17-15--------------------------------17-----|----------15---|
B|-------|-----------------18-15-15----18~-----15~--18b19----15~-|-------15-----|
G|-------|--------------------17----17-----17--------------------|-1716---------|
D|-------|-------------------------------------------------------|--------------|
A|-------|-------------------------------------------------------|--------------|
E|-------|-------------------------------------------------------|--------------|

E|----13----10-1310-6-7---------------------------------------------------------|
B|-12----12--------------8-6-6-8-6---8b10--8-6-8-10-6b7-8-10-6-8-6--------------|
G|---------------------------------7-------------------------------7-5-----7~---|
D|---------------------------------------------------------------------7-5------|
A|------------------------------------------------------------------------------|
E|------------------------------------------------------------------------------|

E--------|----------------------7-------7-9------------|------------------------|
B----6b7|----5b7--r3-0-0---8b9---8b9-9-----8-7--------|-7---------5---3---3-----|
G--------|--------------------------------------9~-----|-7-5-------5---4---2----|
D--------|----------------7----------------------------|-----7-5-7---7---5---5--|
A--------|---------------------------------------------|------------------------|
E--------|---------------------------------------------|------------------------|

E|-------------------------|-----------------------|-----------|---------------|
B|-------------------------|-----------------------|------5----|---------------|
G|-0-----------------------|-----------------------|------5----|---------------|
D|---3-2-0-----------------|-----------------------|--------7--|-------------7-|
A|---------3-2-0-----------|-----------------------|-----------|---------------|
E|---------------{3}b4~----|-----------0-3b4-5-5~--|-----------|-0-3b4-5-5~----|

E--------|---------------------|----------------------|--------------------|----|
B--------|---------------------|----------------------|--------------------|----|
G--------|---------------------|----------------------|--------------------|----|
D--7-5---|------------7--7-5---|---5-6-7----7--7-5----|-----------7--7-5---|----|
A------7|-------------------7-|-7-----------------7~-|------------------7-|-7---|
E--------|-0-3b4-5-5~----------|----------5~----------|-0-3-5-5~-----------|----|

E--------------------|----------------------------|-------------|--------------|
B--------------------|----------------------------|-------------|--------------|
G----------7--7-5----|-----------7-7-5------5-6-7-|-------------|--------------|
D-5-6-7-----------7~-|-----------------7~-7-------|---7--7-5----|-----------7--|
A--------5-----------|-0-3-5-5~-------------------|----------7~-|--------------|
E--------------------|----------------------------|-5-----------|-0-3-5-5~-----|

E---------------|--------------------|-----------------|--------------------|---|
B---------------|--------------------|-----------------|--------------------|---|
G---------------|---9-9------------7-|-----------------|--------------------|---|
D-7-5-----5-6-7-|---9-9------------7-|--------7--7-5---|-----------7--7-5---|---|
A-----7-7-------|---7-7-5------5-7-5-|------0--------7-|------------------7-|-7-|
E---------------|-0-------7--7-------|-----------------|-0-3-5-5~-----------|---|

E-------------------|--------------------|---------------------|-----------------|
B-------------------|--------------------|---------------------|-----------------|
G-------------------|--------------------|---------------------|-----------------|
D-5-6-7----7--7-5---|-----------7--7-5---|---5-6-7----7--7-5---|-----------7--7--|
A-----------------7|------------------7-|-7-----------------7|-------------------|
E-------5~----------|-0-3-5-5~-----------|---------5~----------|-0-3-5-5~--------|

E-----|---------------------|--------------------|---------------------|--------|
B-----|---------------------|--------------------|---------------------|--------|
G-----|---------------------|--------------------|---------------------|--------|
D-5---|---5-6-7----7--7-5---|-----------7--7-5---|---5-6-7----7--7-5---|--------|
A---7-|-7-----------------7|------------------7-|-7-----------------7|----------|
E-----|---------5~----------|-0-3-5-5~-----------|---------5~----------|-0-3-5--|

E--------------|---------------------|--------------------|---------------------|
B--------------|---------------------|--------------------|---------------------|
G--------------|---------------------|--------------------|-----------9-9-7-----|
D-----7--7-5---|---5-6-7----7--7-5---|-----------7--7-5---|---5-6-7-9-------9---|
A------------7-|-7-----------------7|------------------7-|-7-------7------------|
E-5~-----------|---------5~----------|-0-3-5-5~-----------|---------------------|

E|--|-5-----------------------------------|-------------------------------------|
B|--|-5h7-------8---7---5-----------------|-7---------5---3---3-----------------|
G|--|-----5-----7---7---5-6---------------|-7-5-------5---4---2---0-------------|
D|--|-------7-9---7---9-----7-------------|-----7-5-7---7---5---5---3-2-0-------|
A|--|-------------------------7-6-5-------|-------------------------------3-0---|
E|--|-------------------------------8-7-5-|-----------------------------------3-|

E|---|---------------|
B|---|---------------|
G|-2-|---------------|
D|-2-|---------------|
A|-0-|---------------|
E|---|---------------|
Tap to rate this tab
 
# A B C D E F G H I J K L M N O P Q R S T U V W X Y Z