Song name
# A B C D E F G H I J K L M N O P Q R S T U V W X Y Z

Deep Purple - Jam Stew tab

Help us improve GuitareTab! Take a short survey!
                 O.k This is my first(accepted)tab.
                            Deep Purple
                             Jam Stew 
                        Deep Purple In Rock

Main riff

e|-----------------------|
B|-----------------------|
G|--------------------5--|
D|----7-7-7-7-7-7-7-7----|        X14
A|--0--------------------|
E|-----------------------|

0:25
Chorus riff
e|--5----------------------------------------------------------------------|
B|----8-5------------------------------------------------------------------|
G|---------8-7-5-7-5-------------7-5--7-5----------------------------------|
D|----------------------7-5-------------------7-5-------------------------- 
A|-----------------------------7----------------------7-6-5-----7-5--------|
E|---------------------------------------------------------------------8-5-|

Do that twice. Then the main riff 4 times,then;


Guitar solo
0:40

e|----------|----------------------------------------------|
B|----------|----------------------------------------------|
G|----------|----------5--5--5-7-5-7-9-7-9-7-9-7-9-7-9~~~--|
D|--7~~~~~~~|--7-5-7-5--7--7-------------------------------|
A|----------|----------------------------------------------|
E|----------|----------------------------------------------|


e|-------------------------------------------------------------------------|
B|-------------------------------------------------------------------------|
G|--9-7-9-7-9-7-9-7-10-8-10-8-10-8-10-8-10-9-7-9-7-8-6-8-6-7-5-7-5-7-5-----|
D|---------------------------------------------------------------------5s7-|
A|-------------------------------------------------------------------------|
E|-------------------------------------------------------------------------|

e|-----------------------------------------------|
B|-----------------------------------------------|
G|--7h9-7h9-7h9-7h9-7-5-7-------9-9-9-7-5--------|
D|------------------------5~~~~~---------5~~~~~--|
A|-----------------------------------------------|
E|-----------------------------------------------|


1:05 Main riff again 8 times

1:19 Chorus riff(X2 like last time)

1:27 Organ solo

G|--x-x-x-x-x-x-x| However many times it is.

1:57 Main riff 14 times

2:22 End on


e|--5----------------------------------------------------------------------|
B|----8-5------------------------------------------------------------------|
G|---------8-7-5-7-5-------------7-5--7-5----------------------------------|
D|----------------------7-5-------------------7-5-------------------------- 
A|-----------------------------7----------------------7-6-5-----7-5--------|
E|---------------------------------------------------------------------8-5-|


Do that Twice, then you've finished. Comments welcome!
Related for Jam Stew tab