Song name
# A B C D E F G H I J K L M N O P Q R S T U V W X Y Z

Deep Purple - Hard Lovin Man tab

                            Deep Purple
                          Hard Loving Man 
                        Deep Purple In Rock 


   w- Whammy bar(tremolo arm)
   s- scratch
   r- Let ring






Intro


e|----------------------|-----------------------|
B|----------------------|-----------------------|
G|--9wwwwwwwwwwwwwwwwwww|--7-----------------12r|
D|--9wwwwwwwwwwwwwwwwwww|--7ssssssssssssssss-12r|
A|--7wwwwwwwwwwwwwwwwwww|--5-----------------10r|
E|----------------------|-----------------------|


Bass bit

e|-------------|-------------|
B|-------------|-------------|
G|------------|--------------|       
D|------------|--------------|   
A|------------|--------------|
E|5--5--5--5--|--5--5--3/8---|

 Do that twice(if you want to)then
 Main Riff

e|----------------------------|----------------------|
B|----------------------------|----------------------|
G|----------------------------|----------------------|
D|-7--77--7--77--7--77--7--77-|--7--77--7--77--5/10--|
A|-7--77--7--77--7--77--7--77-|--7--77--7--77--5/10--|
E|-5--55--5--55--5--55--5--55-|--5--55--5--55--3/8---|

Do that 10 times. Then;

e|---------------------------|-----------------------|
B|---------------------------|-----------------------|
G|---------------------------|-----------------------|
D|-5--55--5--55--5--55--5-55-|--5-5--7-10-7-10-7-----|
A|-5--55--5--55--5--55--5-55-|--5-5--5-8--5-8--5-10-8|
E|-3--33--3--33--3--33--3-33-|--3-3--------------8--6|


Verse riff

E-----------------------------|-----------------------|
B-----------------------------|-----------------------|
G-----------------------------|-----------------------|
D--5--55--5--55--5--55--5--55-|-----------------------|
A--5--55--5--55--5--55--5--55-|--3-8------------------|
E--3--33--3--33--3--33--3--33-|--1-6------------------|



Main riff x3

E------------------------|
B------------------------|
G------------------------|
D--55--77--88--99--11-12-|
A--55--77--88--99--11-12-|
E--44--55--66--77--9--10-|

Organ solo :(

E-----------------------------||
B-----------------------------||
G--9--99--9--99--9--99--9--99-||
D--9--99--9--99--9--99--9--99-||
A--7--77--7--77--7--77--7--77-||
E-----------------------------||   x36


E-----------|------------|---------|------||
B-----------|------------|---------|------||
G--9~-------|--7---------|--9------|------||
D--9~-------|--7-----7---|--9------|------||
A--7~-------|--5-----7---|--7------|------||
E-----------|--------5---|---------|------||    x2


Soz I can't figure out the solo.


Scratch your strings with your pick until the end of the song.






Tap to rate this tab
 
# A B C D E F G H I J K L M N O P Q R S T U V W X Y Z