Song name
# A B C D E F G H I J K L M N O P Q R S T U V W X Y Z

Deep Sea Diver - New Caves tab

Intro: Its essentiall A but play around with in this form (nice notes to randomly
add whenever you like are in brackets)

E|-----------------------------(7)-(5)----|
B|--------5-----5-----5-----(7)-----------|
G|------6---6-----6-----6-----------------|
D|----7-------7-----7-----7---------------|
A|--0-------------------------------------|
E|----------------------------------------|

Verse:

A			                                A E A D
hopped ship to san francisco
A(up octave)		                                C G C G
no one's backing us down
F
we're out to sea
Emin         G
drifters of a western breeze

first verse riff (again, play around and improvise)
E|-------------------------------------|
B|-2-2-2-0-2-2p0h2p0-------------------|
G|-------------------2-----------------|
D|-------------------------------------|
A|-------------------------------------|
E|-------------------------------------|

second verse riff (^ = prebend and release)


E|-------------------------------------|
B|-5-5-5-3-5^--------------------------|
G|-------------------------------------|
D|-------------------------------------|
A|-------------------------------------|
E|-------------------------------------|

Chorus:

C          G		                        	C F
i couldn't go it alone
C          G		                  	C F
no, i couldn't go it alone
	 	 A        Emin
i thought i might be wrong
    F
but tell me, what do i know?


Bridge:

A F#min A F#min but you can play like

E|-------------------------------------|
B|-------------------------------------|
G|-------------------------------------|
D|-------------------------------------|
A|---------------5-5-5-----------------|
E|-5-5-5-2-2-2-2------2-2-2-2----------|

F#min 	      E				                   A F#min A F#min
oh i do recall a deep sense of anguish
F#min	            F
tried to repair cracked decks with wreckage
Emin
and all the useless pieces


Deep Sea Diver
http://www.myspace.com/deepseadivermusic

Beck and Yeah Yeah Yeah's touring guitarist/keyboard player Jessica Dobson's band.
Tap to rate this tab
 
# A B C D E F G H I J K L M N O P Q R S T U V W X Y Z