Song name
# A B C D E F G H I J K L M N O P Q R S T U V W X Y Z

Deep Wound - Sick Of Fun tab

Deep Wound  Sick Of Fun

Tabbed by: Kapteeni Haddoc

Tuning: E standard

Intro
e|------|
b|------|
g|------|
d|--10--|
a|--10--|
e|--8---|

RIff 1
e|-------------|
b|-------------|
g|-------------|
d|--10--14--7--|
a|--10--14--7--|
e|--8---12--5--|

Riff 2
e|-----------|
b|-----------|
g|-----------|
d|--5--3--2--|
a|--5--3--2--|
e|--3--1--0--|

Riff 3
e|---------------|
b|---------------|
g|---------------|
d|--10--7--3--2--|
a|--10--7--3--2--|
e|--8---5--1--0--|

http://www.myspace.com/deepwoundhc
http://en.wikipedia.org/wiki/Deep_Wound
Tap to rate this tab
 
# A B C D E F G H I J K L M N O P Q R S T U V W X Y Z