Song name
# A B C D E F G H I J K L M N O P Q R S T U V W X Y Z

Deep Wound - I Saw It tab

Deep Wound  I Saw It

Tabbed by: Kapteeni Haddoc

Tuning: E standard

Intro
e|-----|
b|-----|
g|-----|
d|--2--|
a|--2--|
e|--0--|

Riff 1
e|-----------------------------|
b|-----------------------------|
g|-----------------------------|
d|-----4-----------------------|
a|--2--2--2--5--8--2--5--8--7--|
e|--0-----0--3--6--0--3--6--5--|

Riff 2
e|--------|
b|--------|
g|--7--9--|
d|--7--9--|
a|--5--7--|
e|--------|

Riff 3
e|--------------|
b|--------------|
g|--5-----7-----|
d|--5--3--7--7--|
a|--3--3--5--7--|
e|-----1-----5--|

Riff 4
e|-----------------------|
b|-----------------------|
g|-----------------------|
d|-----7-----------7--9--|
a|--4--5--7--5--7--5--7--|
e|--2-----5--3--5--------|

http://www.myspace.com/deepwoundhc
http://en.wikipedia.org/wiki/Deep_Wound
Tap to rate this tab
# A B C D E F G H I J K L M N O P Q R S T U V W X Y Z