Song name
# A B C D E F G H I J K L M N O P Q R S T U V W X Y Z

Deepfield - American Dream tab

Well, this is my first tab I've ever made, so hopefully you like it.
 feedback would be great. this songs played with a 7 String 
i'm guessing but i decided to tab it with just a 6 string. 
i suggest using thicker strings so you can hold tune better. 
(intro and end bridge)                                          first ending
c#|-----------------------------------------------------------|-----------|
g#|-----------------------------------------------------------|-----------|
e |-----------------------------------------------------------|-----------|
b |-----------------------------------------------------------|-----------|
f#|-----------------------------------------------------------|-----------|
B |-12-0-12-0-12-0-12-(12)/10-0-10-0-10-10-12/3-0-3-0-3-0-3/5-|0-5-0-3-5-3|
 Second
|---------------|
|---------------|
|---------------|
|-55-5-5555-----|
|-55-5-5555-----|
|-55-5-5555-12/0|

intro pt2/Chorus
|--------------------------------------------------------------------------|
|--------------------------------------------------------------------------|
|--------------------------------------------------------------------------|
|-12-0-12-0-12-0-12-(12)/10-0-10-0-10-10-12/3-0-3-0-3-0-3/5-0-5-0-3-5-3----|
|-12-0-12-0-12-0-12-(12)/10-0-10-0-10-10-12/3-0-3-0-3-0-3/5-0-5-0-3-5-3----|
|-12-0-12-0-12-(12)/12-0-12-0-10-0-10-10-12/3-0-3-0-3-0-3/5-0-5-0-3-5-3----|

Verse                                     first time only
|------------------------------------|    |---------|
|------------------------------------|    |---------|
|------------------------------------| x2 |---------|
|1212---12121010---101233---3355-5353|    |-(3)/12)-|
|1212---12121010---101233---3355-5353|    |-(3)/12)-|
|1212---12121010---101233---3355-5353|    |-(3)/12)-| 

pre-chorus lead   End Chorus
|---------|       |---------------|
|---------|       |---------------|
|---------|       |---------------|
|-~6/18---|       |-XXXXXXX-~6/18-|
|---------|       |-XXXXXXX-------|
|---------|       |-XXXXXXX-------|

Intro
Verse

pre-chorus 2
|---------------------------------------------------------|
|---------------------------------------------------------|
|---------------------------------------------------------|
|-12-12-12-15-12-12-12-12-12-15/17-12-12-12-15-12-12-~6/18|
|---------------------------------------------------------|
|---------------------------------------------------------|

Chorus

Bridge part
|--------------------------------------------|
|--------------------------------------------|
|--------------------------------------------|
|-12-121212/10-101010-101012/333-333/555-353-|
|-12-121212/10-101010-101012/333-333/555-353-|
|-12-121212/10-101010-101012/333-333/555-353-|

|---------------------------------------------------------------------|
|---------------------------------------------------------------------|
|---------------------------------------------------------------------|
|12-0-12-0-12-(12)/12-0-12-0-10-0-10-10-12/3-0-3-0-3-0-3/5-0-5-0-3-5-3|
|12-0-12-0-12-(12)/12-0-12-0-10-0-10-10-12/3-0-3-0-3-0-3/5-0-5-0-3-5-3|
|12-0-12-0-12-(12)/12-0-12-0-10-0-10-10-12/3-0-3-0-3-0-3/5-0-5-0-3-5-3|

Solo
|---------------------------------------------------------------------------|
|--10--10--------------10-10-----------------------10-----------------------|
|hb12hb12-12-10-12-10sb12b12-10--10-9-7-5-7---b9p7---b9hb9-7-b9-7-7/15/17/19|
|---------------------------12-----------7----------------------------------|
|---------------------------------------------------------------------------|
|---------------------------------------------------------------------------|

|---------------------------------------------------------------------------|
|---------------------------------------------------------------------------|
|---------------------------------------------------------------------------|
|---------------------------------------------------------------------------|
|---------------------------------------------------------------------------|
|---------------------------------------------------------------------------|

end Bridge x2
chorusx2
bridge
chorus

Outro (i find if you do the 7th fret harmonic,
while palm muting you get the effect he does, 
but i put them down as X's symbolizing the same thing)
|-------------|
|-------------|
|-------------|
|-X-XX-XX-XXXX| (repeat till end)
|-X-XX-XX-XXXX|
|-X-XX-XX-XXXX|

hopefully if the amount of times played during the certain section doesn't
 really throw you off,
 thats easy to find out nothing major,
 comment and tell me feed back enjoy!
Tap to rate this tab
 
# A B C D E F G H I J K L M N O P Q R S T U V W X Y Z