Song name
# A B C D E F G H I J K L M N O P Q R S T U V W X Y Z

Deer Tick - Art Isnt Real tab

-------------------------------------------------------------------------------
			 Art Isn't Real - Deer Tick
-------------------------------------------------------------------------------
Tabbed by: Checkeroo

Tuning: Standard

Another easy but fun one:
E	X76545
C#m	X46654
G#m	466444
A	577655
B	799877
B7	7998(10)7
B6	799897

| E | C#m | G#m | B |
I am the dotted line,
| E | C#m | G#m | B |
And you fill me in with whatever you like.
.
.
| A |   |   |         |
There has gotta be some old recipe,'cause I gotta get 
| B |   |   | B7 B6 B |
drunk, I gotta forget about some things.

etc.


Intro:      (arp.)
e|-------7----7--------------|
B|------------10-------------|
G|-----8---8--8--------------|
D|------------9--------------|
A|------------9----------4-6-|
E|--7---------7--------7-----|

Fill:                           x2|(ending)---->|
e|--7--9--7---4--5--7---4--5--s7-:|--5--4-------|
B|--5-----5---------4----------7-:|-----------5-|
G|--4-----6---------4----------8-:|----------4--|
D|-----------------------------9-:|---------6---|
A|-------------------------------:|--------7----|
E|-------------------------------:|-------------|
Tap to rate this tab
# A B C D E F G H I J K L M N O P Q R S T U V W X Y Z