Song name
# A B C D E F G H I J K L M N O P Q R S T U V W X Y Z

Deer Tick - Nevada tab

Artist: Deer Tick
Song: Nevada
Album: War Elephant
Tabbed by: Don Tago
Email: recebedou@yahoo.com


Standard Tuning


Intro tab:
e|------4---0-------4---0-------4---0-------4---0-------4---0-------4-----0-|
B|----0---0-------0---0-------0---0-------0---0-------0---0-------0---0h2---|
G|-------------------------------------2------------------------------------|
D|-2-----------4-----------6-----------------------6-----------4------------|
A|--------------------------------------------------------------------------|
E|--------------------------------------------------------------------------|

e|------4---0---------|
B|----0---0-----------|
G|--------------------|
D|-2---------------1--|
A|-------------2-4----|
E|--------------------|


Verse 1/Verse 2 tab: [same for both, then use appropriate ending below]
e|------4---0-------4---0-------4---0-------4---0-------4---0-------4-----0-|
B|----0---0-------0---0-------0---0-------0---0-------0---0-------0---0h2---|
G|-------------------------------------2------------------------------------|
D|-2-----------4-----------6-----------------------6-----------4------------|
A|--------------------------------------------------------------------------|
E|--------------------------------------------------------------------------|

e|------4---0------4---0-------4---0------4---0-------5---5-----5---5---5-|
B|----0---0------0-----------2---2------2---2-----------------------------|
G|--------------------------------------------------2---2---2/4---4---2---|
D|-2-----------2-----1----------------------------------------------------|
A|------------------------2-----------2----------0------------------------|
E|------------------------------------------------------------------------|

:Verse 1 ending
e|------4---0-------4---0-------4---0----------|
B|----0---0-------0---0-------0---0------------|
G|---------------------------------------------|
D|-2-----------4-----------2---------------1---|
A|-------------------------------------2-4-----|
E|---------------------------------------------|

:Verse 1 ending
e|------4---0-------4---0-------4---0-------4---0--|
B|----0---0-------0---0-------0---0-------0---0----|
G|-------------------------------------------------|
D|-2-----------4-----------2-----------6-----------|
A|-------------------------------------------------|
E|-------------------------------------------------|


Interlude tab: [during fiddle part]
{softly}
e|-----4-------4--------4--------------4----|
B|---0---0---0---0----0---0------0---0---0--|
G|-2-------2--------------------------------| [repeat 2x], then
D|------------------2--------0h2---2--------|
A|------------------------------------------|
E|------------------------------------------|

{softly}
e|------4---------4-----|
B|----0---0-----0---4---|
G|----------------------| 
D|-6---------6----------| then,
A|----------------------|
E|----------------------|

{loudly}
e|------------------------------------------------------|
B|-------0---0-------0---0-------0-----0---0---0-----0--|
G|-----1-------1---1---2---1---1------------------------|
D|-2-------4-----------------------2/4---4--------------|
A|-------------------------------------------2---2/4----|
E|------------------------------------------------------|



Verse 3 & 4 tab: [use verse 1 tab for both verses], then


Outro tab:
e|------4---0-------4---0-------4---0-------4---0-------4---0-------4-----0---|
B|----0---0-------0---0-------0---0-------0---0-------0---0-------0---0h2-----|
G|-------------------------------------2--------------------------------------|
D|-2-----------4-----------6-----------------------6-----------4------------2-|
A|----------------------------------------------------------------------------|
E|----------------------------------------------------------------------------|




Lyrics:
[Verse 1]
Stare at the sun, howl at the moon
Oh, I've come so far, I'm coming for you
Each lonesome night, I've seen this light
That no valley, no river can hide

[Verse 2]
I thought so hard, this is the way
Oh, maybe you're making a fool out of me
Why should I care, I heard you say
"You can't wander without love beside you"

[Interlude]

[Verse 3]
It's hard to detach or leave things behind
Oh, look at me, baby, I'm losin’ my mind
Maybe I'm wrong, maybe you'll stay
Oh, stay here to wander beside me

[Verse 4]
Those in the know, whose colors are true
It's just sixty more miles and baby, I love you
And I'd spill my guts if I had your trust
Oh believe me, you'll always leave me crushed

[outro]
Tap to rate this tab
 
# A B C D E F G H I J K L M N O P Q R S T U V W X Y Z